  0
SECTION
  2
HEADER
  9
$ACADVER
  1
AC1024
  9
$ACADMAINTVER
 70
   205
  9
$DWGCODEPAGE
  3
ANSI_936
  9
$LASTSAVEDBY
  1
cbn27
  9
$INSBASE
 10
0.0
 20
0.0
 30
0.0
  9
$EXTMIN
 10
1188.000000997511
 20
1238.0
 30
0.0
  9
$EXTMAX
 10
2422.524964757438
 20
2704.000681246084
 30
0.0
  9
$LIMMIN
 10
0.0
 20
0.0
  9
$LIMMAX
 10
420.0
 20
297.0
  9
$ORTHOMODE
 70
     0
  9
$REGENMODE
 70
     1
  9
$FILLMODE
 70
     1
  9
$QTEXTMODE
 70
     0
  9
$MIRRTEXT
 70
     0
  9
$LTSCALE
 40
1.0
  9
$ATTMODE
 70
     1
  9
$TEXTSIZE
 40
2.5
  9
$TRACEWID
 40
1.0
  9
$TEXTSTYLE
  7
Standard
  9
$CLAYER
  8
0
  9
$CELTYPE
  6
ByLayer
  9
$CECOLOR
 62
   256
  9
$CELTSCALE
 40
1.0
  9
$DISPSILH
 70
     0
  9
$DIMSCALE
 40
1.0
  9
$DIMASZ
 40
2.5
  9
$DIMEXO
 40
0.625
  9
$DIMDLI
 40
3.75
  9
$DIMRND
 40
0.0
  9
$DIMDLE
 40
0.0
  9
$DIMEXE
 40
1.25
  9
$DIMTP
 40
0.0
  9
$DIMTM
 40
0.0
  9
$DIMTXT
 40
2.5
  9
$DIMCEN
 40
2.5
  9
$DIMTSZ
 40
0.0
  9
$DIMTOL
 70
     0
  9
$DIMLIM
 70
     0
  9
$DIMTIH
 70
     0
  9
$DIMTOH
 70
     0
  9
$DIMSE1
 70
     0
  9
$DIMSE2
 70
     0
  9
$DIMTAD
 70
     1
  9
$DIMZIN
 70
     8
  9
$DIMBLK
  1

  9
$DIMASO
 70
     1
  9
$DIMSHO
 70
     1
  9
$DIMPOST
  1

  9
$DIMAPOST
  1

  9
$DIMALT
 70
     0
  9
$DIMALTD
 70
     3
  9
$DIMALTF
 40
0.03937007874016
  9
$DIMLFAC
 40
1.0
  9
$DIMTOFL
 70
     1
  9
$DIMTVP
 40
0.0
  9
$DIMTIX
 70
     0
  9
$DIMSOXD
 70
     0
  9
$DIMSAH
 70
     0
  9
$DIMBLK1
  1

  9
$DIMBLK2
  1

  9
$DIMSTYLE
  2
ISO-25
  9
$DIMCLRD
 70
     0
  9
$DIMCLRE
 70
     0
  9
$DIMCLRT
 70
     0
  9
$DIMTFAC
 40
1.0
  9
$DIMGAP
 40
0.625
  9
$DIMJUST
 70
     0
  9
$DIMSD1
 70
     0
  9
$DIMSD2
 70
     0
  9
$DIMTOLJ
 70
     0
  9
$DIMTZIN
 70
     8
  9
$DIMALTZ
 70
     0
  9
$DIMALTTZ
 70
     0
  9
$DIMUPT
 70
     0
  9
$DIMDEC
 70
     2
  9
$DIMTDEC
 70
     2
  9
$DIMALTU
 70
     2
  9
$DIMALTTD
 70
     3
  9
$DIMTXSTY
  7
Standard
  9
$DIMAUNIT
 70
     0
  9
$DIMADEC
 70
     0
  9
$DIMALTRND
 40
0.0
  9
$DIMAZIN
 70
     0
  9
$DIMDSEP
 70
    44
  9
$DIMATFIT
 70
     3
  9
$DIMFRAC
 70
     0
  9
$DIMLDRBLK
  1

  9
$DIMLUNIT
 70
     2
  9
$DIMLWD
 70
    -2
  9
$DIMLWE
 70
    -2
  9
$DIMTMOVE
 70
     0
  9
$DIMFXL
 40
1.0
  9
$DIMFXLON
 70
     0
  9
$DIMJOGANG
 40
0.7853981633974483
  9
$DIMTFILL
 70
     0
  9
$DIMTFILLCLR
 70
     0
  9
$DIMARCSYM
 70
     0
  9
$DIMLTYPE
  6

  9
$DIMLTEX1
  6

  9
$DIMLTEX2
  6

  9
$DIMTXTDIRECTION
 70
     0
  9
$LUNITS
 70
     2
  9
$LUPREC
 70
     4
  9
$SKETCHINC
 40
1.0
  9
$FILLETRAD
 40
0.0
  9
$AUNITS
 70
     0
  9
$AUPREC
 70
     0
  9
$MENU
  1
.
  9
$ELEVATION
 40
0.0
  9
$PELEVATION
 40
0.0
  9
$THICKNESS
 40
0.0
  9
$LIMCHECK
 70
     0
  9
$CHAMFERA
 40
0.0
  9
$CHAMFERB
 40
0.0
  9
$CHAMFERC
 40
0.0
  9
$CHAMFERD
 40
0.0
  9
$SKPOLY
 70
     0
  9
$TDCREATE
 40
2459034.963238252
  9
$TDUCREATE
 40
2459034.629904919
  9
$TDUPDATE
 40
2459447.058593160
  9
$TDUUPDATE
 40
2459446.725259827
  9
$TDINDWG
 40
2.1119963079
  9
$TDUSRTIMER
 40
2.1119963079
  9
$USRTIMER
 70
     1
  9
$ANGBASE
 50
0.0
  9
$ANGDIR
 70
     0
  9
$PDMODE
 70
     0
  9
$PDSIZE
 40
0.0
  9
$PLINEWID
 40
0.0
  9
$SPLFRAME
 70
     0
  9
$SPLINETYPE
 70
     6
  9
$SPLINESEGS
 70
     8
  9
$HANDSEED
  5
1600
  9
$SURFTAB1
 70
     6
  9
$SURFTAB2
 70
     6
  9
$SURFTYPE
 70
     6
  9
$SURFU
 70
     6
  9
$SURFV
 70
     6
  9
$UCSBASE
  2

  9
$UCSNAME
  2

  9
$UCSORG
 10
0.0
 20
0.0
 30
0.0
  9
$UCSXDIR
 10
1.0
 20
0.0
 30
0.0
  9
$UCSYDIR
 10
0.0
 20
1.0
 30
0.0
  9
$UCSORTHOREF
  2

  9
$UCSORTHOVIEW
 70
     0
  9
$UCSORGTOP
 10
0.0
 20
0.0
 30
0.0
  9
$UCSORGBOTTOM
 10
0.0
 20
0.0
 30
0.0
  9
$UCSORGLEFT
 10
0.0
 20
0.0
 30
0.0
  9
$UCSORGRIGHT
 10
0.0
 20
0.0
 30
0.0
  9
$UCSORGFRONT
 10
0.0
 20
0.0
 30
0.0
  9
$UCSORGBACK
 10
0.0
 20
0.0
 30
0.0
  9
$PUCSBASE
  2

  9
$PUCSNAME
  2

  9
$PUCSORG
 10
0.0
 20
0.0
 30
0.0
  9
$PUCSXDIR
 10
1.0
 20
0.0
 30
0.0
  9
$PUCSYDIR
 10
0.0
 20
1.0
 30
0.0
  9
$PUCSORTHOREF
  2

  9
$PUCSORTHOVIEW
 70
     0
  9
$PUCSORGTOP
 10
0.0
 20
0.0
 30
0.0
  9
$PUCSORGBOTTOM
 10
0.0
 20
0.0
 30
0.0
  9
$PUCSORGLEFT
 10
0.0
 20
0.0
 30
0.0
  9
$PUCSORGRIGHT
 10
0.0
 20
0.0
 30
0.0
  9
$PUCSORGFRONT
 10
0.0
 20
0.0
 30
0.0
  9
$PUCSORGBACK
 10
0.0
 20
0.0
 30
0.0
  9
$USERI1
 70
     0
  9
$USERI2
 70
     0
  9
$USERI3
 70
     0
  9
$USERI4
 70
     0
  9
$USERI5
 70
     0
  9
$USERR1
 40
0.0
  9
$USERR2
 40
0.0
  9
$USERR3
 40
0.0
  9
$USERR4
 40
0.0
  9
$USERR5
 40
0.0
  9
$WORLDVIEW
 70
     1
  9
$SHADEDGE
 70
     3
  9
$SHADEDIF
 70
    70
  9
$TILEMODE
 70
     1
  9
$MAXACTVP
 70
    64
  9
$PINSBASE
 10
0.0
 20
0.0
 30
0.0
  9
$PLIMCHECK
 70
     0
  9
$PEXTMIN
 10
0.0
 20
0.0
 30
0.0
  9
$PEXTMAX
 10
0.0
 20
0.0
 30
0.0
  9
$PLIMMIN
 10
0.0
 20
0.0
  9
$PLIMMAX
 10
12.0
 20
9.0
  9
$UNITMODE
 70
     0
  9
$VISRETAIN
 70
     1
  9
$PLINEGEN
 70
     0
  9
$PSLTSCALE
 70
     1
  9
$TREEDEPTH
 70
  3020
  9
$CMLSTYLE
  2
Standard
  9
$CMLJUST
 70
     0
  9
$CMLSCALE
 40
20.0
  9
$PROXYGRAPHICS
 70
     1
  9
$MEASUREMENT
 70
     1
  9
$CELWEIGHT
370
    -1
  9
$ENDCAPS
280
     0
  9
$JOINSTYLE
280
     0
  9
$LWDISPLAY
290
     0
  9
$INSUNITS
 70
     4
  9
$HYPERLINKBASE
  1

  9
$STYLESHEET
  1

  9
$XEDIT
290
     1
  9
$CEPSNTYPE
380
     0
  9
$PSTYLEMODE
290
     1
  9
$FINGERPRINTGUID
  2
{9BD92D6A-0467-4BF0-AA32-2CFDF4637242}
  9
$VERSIONGUID
  2
{F286BB07-0AF8-4222-94B5-3245A5A0E890}
  9
$EXTNAMES
290
     1
  9
$PSVPSCALE
 40
0.0
  9
$OLESTARTUP
290
     0
  9
$SORTENTS
280
   127
  9
$INDEXCTL
280
     0
  9
$HIDETEXT
280
     1
  9
$XCLIPFRAME
280
     2
  9
$HALOGAP
280
     0
  9
$OBSCOLOR
 70
   257
  9
$OBSLTYPE
280
     0
  9
$INTERSECTIONDISPLAY
280
     0
  9
$INTERSECTIONCOLOR
 70
   257
  9
$DIMASSOC
280
     2
  9
$PROJECTNAME
  1

  9
$CAMERADISPLAY
290
     0
  9
$LENSLENGTH
 40
50.0
  9
$CAMERAHEIGHT
 40
0.0
  9
$STEPSPERSEC
 40
2.0
  9
$STEPSIZE
 40
6.0
  9
$3DDWFPREC
 40
2.0
  9
$PSOLWIDTH
 40
5.0
  9
$PSOLHEIGHT
 40
80.0
  9
$LOFTANG1
 40
1.570796326794896
  9
$LOFTANG2
 40
1.570796326794896
  9
$LOFTMAG1
 40
0.0
  9
$LOFTMAG2
 40
0.0
  9
$LOFTPARAM
 70
     7
  9
$LOFTNORMALS
280
     1
  9
$LATITUDE
 40
37.795
  9
$LONGITUDE
 40
-122.394
  9
$NORTHDIRECTION
 40
0.0
  9
$TIMEZONE
 70
 -8000
  9
$LIGHTGLYPHDISPLAY
280
     1
  9
$TILEMODELIGHTSYNCH
280
     1
  9
$CMATERIAL
347
EC
  9
$SOLIDHIST
280
     0
  9
$SHOWHIST
280
     1
  9
$DWFFRAME
280
     2
  9
$DGNFRAME
280
     0
  9
$REALWORLDSCALE
290
     1
  9
$INTERFERECOLOR
 62
     1
  9
$INTERFEREOBJVS
345
F9
  9
$INTERFEREVPVS
346
F6
  9
$CSHADOW
280
     0
  9
$SHADOWPLANELOCATION
 40
0.0
  0
ENDSEC
  0
SECTION
  2
CLASSES
  0
CLASS
  1
ACDBDICTIONARYWDFLT
  2
AcDbDictionaryWithDefault
  3
ObjectDBX Classes
 90
        0
 91
        1
280
     0
281
     0
  0
CLASS
  1
DICTIONARYVAR
  2
AcDbDictionaryVar
  3
ObjectDBX Classes
 90
        0
 91
       14
280
     0
281
     0
  0
CLASS
  1
TABLESTYLE
  2
AcDbTableStyle
  3
ObjectDBX Classes
 90
     4095
 91
        1
280
     0
281
     0
  0
CLASS
  1
MATERIAL
  2
AcDbMaterial
  3
ObjectDBX Classes
 90
     1153
 91
        3
280
     0
281
     0
  0
CLASS
  1
VISUALSTYLE
  2
AcDbVisualStyle
  3
ObjectDBX Classes
 90
     4095
 91
       24
280
     0
281
     0
  0
CLASS
  1
SCALE
  2
AcDbScale
  3
ObjectDBX Classes
 90
     1153
 91
       17
280
     0
281
     0
  0
CLASS
  1
MLEADERSTYLE
  2
AcDbMLeaderStyle
  3
ACDB_MLEADERSTYLE_CLASS
 90
     4095
 91
        2
280
     0
281
     0
  0
CLASS
  1
CELLSTYLEMAP
  2
AcDbCellStyleMap
  3
ObjectDBX Classes
 90
     1152
 91
        2
280
     0
281
     0
  0
CLASS
  1
EXACXREFPANELOBJECT
  2
ExAcXREFPanelObject
  3
EXAC_ESW
 90
     1025
 91
        0
280
     0
281
     0
  0
CLASS
  1
NPOCOLLECTION
  2
AcDbImpNonPersistentObjectsCollection
  3
ObjectDBX Classes
 90
     1153
 91
        0
280
     0
281
     0
  0
CLASS
  1
LAYER_INDEX
  2
AcDbLayerIndex
  3
ObjectDBX Classes
 90
        0
 91
        0
280
     0
281
     0
  0
CLASS
  1
SPATIAL_INDEX
  2
AcDbSpatialIndex
  3
ObjectDBX Classes
 90
        0
 91
        0
280
     0
281
     0
  0
CLASS
  1
IDBUFFER
  2
AcDbIdBuffer
  3
ObjectDBX Classes
 90
        0
 91
        0
280
     0
281
     0
  0
CLASS
  1
ACDBSECTIONVIEWSTYLE
  2
AcDbSectionViewStyle
  3
ObjectDBX Classes
 90
     1025
 91
        1
280
     0
281
     0
  0
CLASS
  1
ACDBDETAILVIEWSTYLE
  2
AcDbDetailViewStyle
  3
ObjectDBX Classes
 90
     1025
 91
        1
280
     0
281
     0
  0
CLASS
  1
SORTENTSTABLE
  2
AcDbSortentsTable
  3
ObjectDBX Classes
 90
        0
 91
        7
280
     0
281
     0
  0
ENDSEC
  0
SECTION
  2
TABLES
  0
TABLE
  2
VPORT
  5
8
102
{ACAD_XDICTIONARY
360
6DB
102
}
330
0
100
AcDbSymbolTable
 70
     1
  0
VPORT
  5
EA
330
8
100
AcDbSymbolTableRecord
100
AcDbViewportTableRecord
  2
*Active
 70
     0
 10
0.0
 20
0.0
 11
1.0
 21
1.0
 12
995.2921942478786
 22
1356.767977989159
 13
0.0
 23
0.0
 14
10.0
 24
10.0
 15
10.0
 25
10.0
 16
0.0
 26
0.0
 36
1.0
 17
0.0
 27
0.0
 37
0.0
 40
526.2925914142603
 41
2.29071170084439
 42
50.0
 43
0.0
 44
0.0
 50
0.0
 51
0.0
 71
     0
 72
  1000
 73
     1
 74
     3
 75
     0
 76
     1
 77
     0
 78
     0
281
     0
 65
     1
110
0.0
120
0.0
130
0.0
111
1.0
121
0.0
131
0.0
112
0.0
122
1.0
132
0.0
 79
     0
146
0.0
348
F5
 60
     3
 61
     5
292
     1
282
     1
141
0.0
142
0.0
 63
   250
421
  3355443
1001
ACAD_NAV_VCDISPLAY
1070
     3
  0
ENDTAB
  0
TABLE
  2
LTYPE
  5
5
330
0
100
AcDbSymbolTable
 70
     2
  0
LTYPE
  5
14
330
5
100
AcDbSymbolTableRecord
100
AcDbLinetypeTableRecord
  2
ByBlock
 70
     0
  3

 72
    65
 73
     0
 40
0.0
  0
LTYPE
  5
15
330
5
100
AcDbSymbolTableRecord
100
AcDbLinetypeTableRecord
  2
ByLayer
 70
     0
  3

 72
    65
 73
     0
 40
0.0
  0
LTYPE
  5
16
330
5
100
AcDbSymbolTableRecord
100
AcDbLinetypeTableRecord
  2
Continuous
 70
     0
  3
Solid line
 72
    65
 73
     0
 40
0.0
  0
ENDTAB
  0
TABLE
  2
LAYER
  5
2
102
{ACAD_XDICTIONARY
360
1FF
102
}
330
0
100
AcDbSymbolTable
 70
     1
  0
LAYER
  5
10
102
{ACAD_XDICTIONARY
360
13C
102
}
330
2
100
AcDbSymbolTableRecord
100
AcDbLayerTableRecord
  2
0
 70
     0
 62
     7
  6
Continuous
370
    -3
390
F
347
EE
  0
ENDTAB
  0
TABLE
  2
STYLE
  5
3
330
0
100
AcDbSymbolTable
 70
     2
  0
STYLE
  5
11
330
3
100
AcDbSymbolTableRecord
100
AcDbTextStyleTableRecord
  2
Standard
 70
     0
 40
0.0
 41
1.0
 50
0.0
 71
     0
 42
2.5
  3
arial.ttf
  4

1001
ACAD
1000
Arial
1071
       34
  0
STYLE
  5
132
330
3
100
AcDbSymbolTableRecord
100
AcDbTextStyleTableRecord
  2
Annotative
 70
     0
 40
0.0
 41
1.0
 50
0.0
 71
     0
 42
2.5
  3
arial.ttf
  4

1001
AcadAnnotative
1000
AnnotativeData
1002
{
1070
     1
1070
     1
1002
}
1001
ACAD
1000
Arial
1071
       34
  0
ENDTAB
  0
TABLE
  2
VIEW
  5
6
330
0
100
AcDbSymbolTable
 70
     0
  0
ENDTAB
  0
TABLE
  2
UCS
  5
7
330
0
100
AcDbSymbolTable
 70
     0
  0
ENDTAB
  0
TABLE
  2
APPID
  5
9
330
0
100
AcDbSymbolTable
 70
    11
  0
APPID
  5
12
330
9
100
AcDbSymbolTableRecord
100
AcDbRegAppTableRecord
  2
ACAD
 70
     0
  0
APPID
  5
9E
330
9
100
AcDbSymbolTableRecord
100
AcDbRegAppTableRecord
  2
ACAD_PSEXT
 70
     0
  0
APPID
  5
133
330
9
100
AcDbSymbolTableRecord
100
AcDbRegAppTableRecord
  2
AcadAnnoPO
 70
     0
  0
APPID
  5
134
330
9
100
AcDbSymbolTableRecord
100
AcDbRegAppTableRecord
  2
AcadAnnotative
 70
     0
  0
APPID
  5
135
330
9
100
AcDbSymbolTableRecord
100
AcDbRegAppTableRecord
  2
ACAD_DSTYLE_DIMJAG
 70
     0
  0
APPID
  5
136
330
9
100
AcDbSymbolTableRecord
100
AcDbRegAppTableRecord
  2
ACAD_DSTYLE_DIMTALN
 70
     0
  0
APPID
  5
165
330
9
100
AcDbSymbolTableRecord
100
AcDbRegAppTableRecord
  2
ACAD_MLEADERVER
 70
     0
  0
APPID
  5
217
330
9
100
AcDbSymbolTableRecord
100
AcDbRegAppTableRecord
  2
ACAD_NAV_VCDISPLAY
 70
     0
  0
APPID
  5
262
330
9
100
AcDbSymbolTableRecord
100
AcDbRegAppTableRecord
  2
ACAD_EXEMPT_FROM_CAD_STANDARDS
 70
     0
  0
APPID
  5
5BF
330
9
100
AcDbSymbolTableRecord
100
AcDbRegAppTableRecord
  2
GradientColor1ACI
 70
     0
  0
APPID
  5
5C0
330
9
100
AcDbSymbolTableRecord
100
AcDbRegAppTableRecord
  2
GradientColor2ACI
 70
     0
  0
ENDTAB
  0
TABLE
  2
DIMSTYLE
  5
A
330
0
100
AcDbSymbolTable
 70
     4
100
AcDbDimStyleTable
 71
     2
340
27
340
137
  0
DIMSTYLE
105
1B0
330
A
100
AcDbSymbolTableRecord
100
AcDbDimStyleTableRecord
  2
Standard
 70
     0
340
11
  0
DIMSTYLE
105
137
330
A
100
AcDbSymbolTableRecord
100
AcDbDimStyleTableRecord
  2
Annotative
 70
     0
 40
0.0
 41
2.5
 42
0.625
 43
3.75
 44
1.25
 73
     0
 74
     0
 77
     1
 78
     8
140
2.5
141
2.5
143
0.03937007874016
147
0.625
171
     3
172
     1
271
     2
272
     2
274
     3
278
    44
283
     0
284
     8
340
11
1001
AcadAnnotative
1000
AnnotativeData
1002
{
1070
     1
1070
     1
1002
}
1001
ACAD_DSTYLE_DIMJAG
1070
   388
1040
1.5
1001
ACAD_DSTYLE_DIMTALN
1070
   392
1070
     0
  0
DIMSTYLE
105
27
330
A
100
AcDbSymbolTableRecord
100
AcDbDimStyleTableRecord
  2
ISO-25
 70
     0
 41
2.5
 42
0.625
 43
3.75
 44
1.25
 73
     0
 74
     0
 77
     1
 78
     8
140
2.5
141
2.5
143
0.03937007874016
147
0.625
171
     3
172
     1
271
     2
272
     2
274
     3
278
    44
283
     0
284
     8
340
11
  0
ENDTAB
  0
TABLE
  2
BLOCK_RECORD
  5
1
330
0
100
AcDbSymbolTable
 70
     9
  0
BLOCK_RECORD
  5
1F
102
{ACAD_XDICTIONARY
360
1CE
102
}
330
1
100
AcDbSymbolTableRecord
100
AcDbBlockTableRecord
  2
*Model_Space
340
22
 70
     0
280
     1
281
     0
  0
BLOCK_RECORD
  5
D2
330
1
100
AcDbSymbolTableRecord
100
AcDbBlockTableRecord
  2
*Paper_Space
340
D3
 70
     0
280
     1
281
     0
  0
BLOCK_RECORD
  5
D6
330
1
100
AcDbSymbolTableRecord
100
AcDbBlockTableRecord
  2
*Paper_Space0
340
D7
 70
     0
280
     1
281
     0
  0
BLOCK_RECORD
  5
4D9
102
{ACAD_XDICTIONARY
360
4DB
102
}
330
1
100
AcDbSymbolTableRecord
100
AcDbBlockTableRecord
  2
A$C12B759DF
340
0
 70
     4
280
     1
281
     0
  0
BLOCK_RECORD
  5
602
102
{ACAD_XDICTIONARY
360
604
102
}
330
1
100
AcDbSymbolTableRecord
100
AcDbBlockTableRecord
  2
A$C4BC167A8
340
0
 70
     4
280
     1
281
     0
  0
BLOCK_RECORD
  5
657
102
{ACAD_XDICTIONARY
360
659
102
}
330
1
100
AcDbSymbolTableRecord
100
AcDbBlockTableRecord
  2
A$C0546221F
340
0
 70
     4
280
     1
281
     0
  0
BLOCK_RECORD
  5
771
102
{ACAD_XDICTIONARY
360
78E
102
}
330
1
100
AcDbSymbolTableRecord
100
AcDbBlockTableRecord
  2
A$C3FBF5927
340
0
 70
     4
280
     1
281
     0
  0
BLOCK_RECORD
  5
7BB
102
{ACAD_XDICTIONARY
360
80B
102
}
330
1
100
AcDbSymbolTableRecord
100
AcDbBlockTableRecord
  2
A$C550E25B6
340
0
 70
     4
280
     1
281
     0
  0
BLOCK_RECORD
  5
DC5
102
{ACAD_XDICTIONARY
360
DC7
102
}
330
1
100
AcDbSymbolTableRecord
100
AcDbBlockTableRecord
  2
A$C37C64810
340
0
 70
     4
280
     1
281
     0
  0
ENDTAB
  0
ENDSEC
  0
SECTION
  2
BLOCKS
  0
BLOCK
  5
20
330
1F
100
AcDbEntity
  8
0
100
AcDbBlockBegin
  2
*Model_Space
 70
     0
 10
0.0
 20
0.0
 30
0.0
  3
*Model_Space
  1

  0
ENDBLK
  5
21
330
1F
100
AcDbEntity
  8
0
100
AcDbBlockEnd
  0
BLOCK
  5
D4
330
D2
100
AcDbEntity
 67
     1
  8
0
100
AcDbBlockBegin
  2
*Paper_Space
 70
     0
 10
0.0
 20
0.0
 30
0.0
  3
*Paper_Space
  1

  0
ENDBLK
  5
D5
330
D2
100
AcDbEntity
 67
     1
  8
0
100
AcDbBlockEnd
  0
BLOCK
  5
D8
330
D6
100
AcDbEntity
 67
     1
  8
0
100
AcDbBlockBegin
  2
*Paper_Space0
 70
     0
 10
0.0
 20
0.0
 30
0.0
  3
*Paper_Space0
  1

  0
ENDBLK
  5
D9
330
D6
100
AcDbEntity
 67
     1
  8
0
100
AcDbBlockEnd
  0
BLOCK
  5
4DC
330
4D9
100
AcDbEntity
  8
0
100
AcDbBlockBegin
  2
A$C12B759DF
 70
     0
 10
0.0
 20
0.0
 30
0.0
  3
A$C12B759DF
  1

  0
LINE
  5
4DA
330
4D9
100
AcDbEntity
  8
0
100
AcDbLine
 10
-0.0000024693945306
 20
-0.0000000989487035
 30
0.0
 11
2.999997530605469
 21
-0.0000000989487035
 31
0.0
  0
ENDBLK
  5
4DD
330
4D9
100
AcDbEntity
  8
0
100
AcDbBlockEnd
  0
BLOCK
  5
606
330
602
100
AcDbEntity
  8
0
100
AcDbBlockBegin
  2
A$C4BC167A8
 70
     0
 10
0.0
 20
0.0
 30
0.0
  3
A$C4BC167A8
  1

  0
LINE
  5
603
330
602
100
AcDbEntity
  8
0
100
AcDbLine
 10
-0.0000032776342778
 20
0.0000014214974726
 30
0.0
 11
3.979900771777465
 21
0.0000014214974726
 31
0.0
  0
ENDBLK
  5
607
330
602
100
AcDbEntity
  8
0
100
AcDbBlockEnd
  0
BLOCK
  5
65B
330
657
100
AcDbEntity
  8
0
100
AcDbBlockBegin
  2
A$C0546221F
 70
     0
 10
0.0
 20
0.0
 30
0.0
  3
A$C0546221F
  1

  0
LINE
  5
658
330
657
100
AcDbEntity
  8
0
100
AcDbLine
 10
-0.0000032776342778
 20
0.0000014214974726
 30
0.0
 11
3.979900771777465
 21
0.0000014214974726
 31
0.0
  0
ENDBLK
  5
65C
330
657
100
AcDbEntity
  8
0
100
AcDbBlockEnd
  0
BLOCK
  5
790
330
771
100
AcDbEntity
  8
0
100
AcDbBlockBegin
  2
A$C3FBF5927
 70
     0
 10
0.0
 20
0.0
 30
0.0
  3
A$C3FBF5927
  1

  0
LINE
  5
772
330
771
100
AcDbEntity
  8
0
100
AcDbLine
 10
0.0000009975115063
 20
25.99999988337277
 30
0.0
 11
0.0000009975115063
 21
50.99999899893669
 31
0.0
  0
LINE
  5
773
330
771
100
AcDbEntity
  8
0
100
AcDbLine
 10
0.0000009975115063
 20
50.99999899893669
 30
0.0
 11
4.000000997511506
 21
50.99999899893669
 31
0.0
  0
LINE
  5
774
330
771
100
AcDbEntity
  8
0
100
AcDbLine
 10
4.000000997511506
 20
50.99999899893669
 30
0.0
 11
4.000000997511506
 21
70.99999899893669
 31
0.0
  0
LINE
  5
775
330
771
100
AcDbEntity
  8
0
100
AcDbLine
 10
4.000000997511506
 20
70.99999899893669
 30
0.0
 11
0.0000009975115063
 21
70.99999899893669
 31
0.0
  0
LINE
  5
776
330
771
100
AcDbEntity
  8
0
100
AcDbLine
 10
0.0000009975115063
 20
70.99999899893669
 30
0.0
 11
0.0000009975115063
 21
95.99999899893669
 31
0.0
  0
LINE
  5
777
330
771
100
AcDbEntity
  8
0
100
AcDbLine
 10
0.0000009975115063
 20
95.99999899893669
 30
0.0
 11
4.000000997511506
 21
95.99999899893669
 31
0.0
  0
LINE
  5
778
330
771
100
AcDbEntity
  8
0
100
AcDbLine
 10
4.000000997511506
 20
95.99999899893669
 30
0.0
 11
4.000000997511506
 21
121.9999989989367
 31
0.0
  0
LINE
  5
779
330
771
100
AcDbEntity
  8
0
100
AcDbLine
 10
0.0000009975115063
 20
25.99999988337277
 30
0.0
 11
4.000000997511506
 21
25.99999988337277
 31
0.0
  0
LINE
  5
77A
330
771
100
AcDbEntity
  8
0
100
AcDbLine
 10
4.000000997511506
 20
25.99999988337277
 30
0.0
 11
4.000000997511506
 21
-0.0000001166272341
 31
0.0
  0
LINE
  5
77B
330
771
100
AcDbEntity
  8
0
100
AcDbLine
 10
4.000000997511506
 20
-0.0000001166272341
 30
0.0
 11
41.0000009975115
 21
-0.0000001166272341
 31
0.0
  0
LINE
  5
77C
330
771
100
AcDbEntity
  8
0
100
AcDbLine
 10
41.0000009975115
 20
-0.0000001166272341
 30
0.0
 11
41.0000009975115
 21
25.99999988337277
 31
0.0
  0
LINE
  5
77D
330
771
100
AcDbEntity
  8
0
100
AcDbLine
 10
19.0000009975115
 20
2.999998998936689
 30
0.0
 11
19.0000009975115
 21
5.999998998936689
 31
0.0
  0
LINE
  5
77E
330
771
100
AcDbEntity
  8
0
100
AcDbLine
 10
19.0000009975115
 20
5.999998998936689
 30
0.0
 11
26.00000099751151
 21
5.999998998936689
 31
0.0
  0
LINE
  5
77F
330
771
100
AcDbEntity
  8
0
100
AcDbLine
 10
26.00000099751151
 20
5.999998998936689
 30
0.0
 11
26.00000099751151
 21
2.999998998936689
 31
0.0
  0
LINE
  5
780
330
771
100
AcDbEntity
  8
0
100
AcDbLine
 10
19.0000009975115
 20
2.999998998936689
 30
0.0
 11
26.00000099751151
 21
2.999998998936689
 31
0.0
  0
LINE
  5
781
330
771
100
AcDbEntity
  8
0
100
AcDbLine
 10
41.0000009975115
 20
25.99999988337277
 30
0.0
 11
45.0000009975115
 21
25.99999988337277
 31
0.0
  0
LINE
  5
782
330
771
100
AcDbEntity
  8
0
100
AcDbLine
 10
45.0000009975115
 20
25.99999988337277
 30
0.0
 11
45.0000009975115
 21
50.99999988337277
 31
0.0
  0
LINE
  5
783
330
771
100
AcDbEntity
  8
0
100
AcDbLine
 10
45.0000009975115
 20
50.99999988337277
 30
0.0
 11
41.0000009975115
 21
50.99999988337277
 31
0.0
  0
LINE
  5
784
330
771
100
AcDbEntity
  8
0
100
AcDbLine
 10
41.0000009975115
 20
50.99999988337277
 30
0.0
 11
41.0000009975115
 21
70.99999988337277
 31
0.0
  0
LINE
  5
785
330
771
100
AcDbEntity
  8
0
100
AcDbLine
 10
41.0000009975115
 20
70.99999988337277
 30
0.0
 11
45.0000009975115
 21
70.99999988337277
 31
0.0
  0
LINE
  5
786
330
771
100
AcDbEntity
  8
0
100
AcDbLine
 10
45.0000009975115
 20
70.99999988337277
 30
0.0
 11
45.0000009975115
 21
95.99999988337277
 31
0.0
  0
LINE
  5
787
330
771
100
AcDbEntity
  8
0
100
AcDbLine
 10
45.0000009975115
 20
95.99999988337277
 30
0.0
 11
41.0000009975115
 21
95.99999988337277
 31
0.0
  0
LINE
  5
788
330
771
100
AcDbEntity
  8
0
100
AcDbLine
 10
41.0000009975115
 20
95.99999988337277
 30
0.0
 11
41.0000009975115
 21
121.9999998833728
 31
0.0
  0
LINE
  5
789
330
771
100
AcDbEntity
  8
0
100
AcDbLine
 10
41.0000009975115
 20
121.9999998833728
 30
0.0
 11
4.000000997511506
 21
121.9999989989367
 31
0.0
  0
LINE
  5
78A
330
771
100
AcDbEntity
  8
0
100
AcDbLine
 10
19.0000009975115
 20
118.9999989989367
 30
0.0
 11
19.0000009975115
 21
115.9999989989367
 31
0.0
  0
LINE
  5
78B
330
771
100
AcDbEntity
  8
0
100
AcDbLine
 10
19.0000009975115
 20
115.9999989989367
 30
0.0
 11
26.00000099751151
 21
115.9999989989367
 31
0.0
  0
LINE
  5
78C
330
771
100
AcDbEntity
  8
0
100
AcDbLine
 10
26.00000099751151
 20
115.9999989989367
 30
0.0
 11
26.00000099751151
 21
118.9999989989367
 31
0.0
  0
LINE
  5
78D
330
771
100
AcDbEntity
  8
0
100
AcDbLine
 10
26.00000099751151
 20
118.9999989989367
 30
0.0
 11
19.0000009975115
 21
118.9999989989367
 31
0.0
  0
ENDBLK
  5
791
330
771
100
AcDbEntity
  8
0
100
AcDbBlockEnd
  0
BLOCK
  5
80D
330
7BB
100
AcDbEntity
  8
0
100
AcDbBlockBegin
  2
A$C550E25B6
 70
     0
 10
0.0
 20
0.0
 30
0.0
  3
A$C550E25B6
  1

  0
LINE
  5
7BC
330
7BB
100
AcDbEntity
  8
0
100
AcDbLine
 10
53.0000011968832
 20
44.99999938449582
 30
0.0
 11
23.0000011968832
 21
44.99999938449582
 31
0.0
  0
LINE
  5
7BD
330
7BB
100
AcDbEntity
  8
0
100
AcDbLine
 10
64.0000011968832
 20
40.99999938449582
 30
0.0
 11
64.0000011968832
 21
44.99999938449582
 31
0.0
  0
LINE
  5
7BE
330
7BB
100
AcDbEntity
  8
0
100
AcDbLine
 10
94.0000011968832
 20
44.99999938449582
 30
0.0
 11
94.0000011968832
 21
40.99999938449582
 31
0.0
  0
LINE
  5
7BF
330
7BB
100
AcDbEntity
  8
0
100
AcDbLine
 10
105.0000011968832
 20
40.99999938449582
 30
0.0
 11
105.0000011968832
 21
44.99999938449582
 31
0.0
  0
LINE
  5
7C0
330
7BB
100
AcDbEntity
  8
0
100
AcDbLine
 10
105.0000011968832
 20
44.99999938449582
 30
0.0
 11
135.0000011968832
 21
44.99999938449582
 31
0.0
  0
LINE
  5
7C1
330
7BB
100
AcDbEntity
  8
0
100
AcDbLine
 10
135.0000011968832
 20
44.99999938449582
 30
0.0
 11
135.0000011968832
 21
40.99999938449582
 31
0.0
  0
LINE
  5
7C2
330
7BB
100
AcDbEntity
  8
0
100
AcDbLine
 10
135.0000011968832
 20
40.99999938449582
 30
0.0
 11
154.0000011968832
 21
40.99999938449582
 31
0.0
  0
LINE
  5
7C3
330
7BB
100
AcDbEntity
  8
0
100
AcDbLine
 10
4.000001196883204
 20
40.99999938449582
 30
0.0
 11
23.0000011968832
 21
40.99999938449582
 31
0.0
  0
LINE
  5
7C4
330
7BB
100
AcDbEntity
  8
0
100
AcDbLine
 10
23.0000011968832
 20
44.99999938449582
 30
0.0
 11
23.0000011968832
 21
40.99999938449582
 31
0.0
  0
LINE
  5
7C5
330
7BB
100
AcDbEntity
  8
0
100
AcDbLine
 10
53.0000011968832
 20
44.99999938449582
 30
0.0
 11
53.0000011968832
 21
40.99999938449582
 31
0.0
  0
LINE
  5
7C6
330
7BB
100
AcDbEntity
  8
0
100
AcDbLine
 10
64.0000011968832
 20
44.99999938449582
 30
0.0
 11
94.0000011968832
 21
44.99999938449582
 31
0.0
  0
LINE
  5
7C7
330
7BB
100
AcDbEntity
  8
0
100
AcDbLine
 10
53.0000011968832
 20
40.99999938449582
 30
0.0
 11
64.0000011968832
 21
40.99999938449582
 31
0.0
  0
LINE
  5
7C8
330
7BB
100
AcDbEntity
  8
0
100
AcDbLine
 10
94.0000011968832
 20
40.99999938449582
 30
0.0
 11
105.0000011968832
 21
40.99999938449582
 31
0.0
  0
LINE
  5
7C9
330
7BB
100
AcDbEntity
  8
0
100
AcDbLine
 10
4.000001196883204
 20
3.999999384495822
 30
0.0
 11
23.0000011968832
 21
3.999999384495822
 31
0.0
  0
LINE
  5
7CA
330
7BB
100
AcDbEntity
  8
0
100
AcDbLine
 10
23.0000011968832
 20
3.999999384495822
 30
0.0
 11
23.0000011968832
 21
-0.0000006155041774
 31
0.0
  0
LINE
  5
7CB
330
7BB
100
AcDbEntity
  8
0
100
AcDbLine
 10
23.0000011968832
 20
-0.0000006155041774
 30
0.0
 11
53.0000011968832
 21
-0.0000006155041774
 31
0.0
  0
LINE
  5
7CC
330
7BB
100
AcDbEntity
  8
0
100
AcDbLine
 10
53.0000011968832
 20
-0.0000006155041774
 30
0.0
 11
53.0000011968832
 21
3.999999384495822
 31
0.0
  0
LINE
  5
7CD
330
7BB
100
AcDbEntity
  8
0
100
AcDbLine
 10
53.0000011968832
 20
3.999999384495822
 30
0.0
 11
64.0000011968832
 21
3.999999384495822
 31
0.0
  0
LINE
  5
7CE
330
7BB
100
AcDbEntity
  8
0
100
AcDbLine
 10
64.0000011968832
 20
3.999999384495822
 30
0.0
 11
64.0000011968832
 21
-0.0000006155041774
 31
0.0
  0
LINE
  5
7CF
330
7BB
100
AcDbEntity
  8
0
100
AcDbLine
 10
64.0000011968832
 20
-0.0000006155041774
 30
0.0
 11
94.0000011968832
 21
-0.0000006155041774
 31
0.0
  0
LINE
  5
7D0
330
7BB
100
AcDbEntity
  8
0
100
AcDbLine
 10
94.0000011968832
 20
-0.0000006155041774
 30
0.0
 11
94.0000011968832
 21
3.999999384495822
 31
0.0
  0
LINE
  5
7D1
330
7BB
100
AcDbEntity
  8
0
100
AcDbLine
 10
94.0000011968832
 20
3.999999384495822
 30
0.0
 11
105.0000011968832
 21
3.999999384495822
 31
0.0
  0
LINE
  5
7D2
330
7BB
100
AcDbEntity
  8
0
100
AcDbLine
 10
105.0000011968832
 20
3.999999384495822
 30
0.0
 11
105.0000011968832
 21
-0.0000006155041774
 31
0.0
  0
LINE
  5
7D3
330
7BB
100
AcDbEntity
  8
0
100
AcDbLine
 10
105.0000011968832
 20
-0.0000006155041774
 30
0.0
 11
135.0000011968832
 21
-0.0000006155041774
 31
0.0
  0
LINE
  5
7D4
330
7BB
100
AcDbEntity
  8
0
100
AcDbLine
 10
135.0000011968832
 20
-0.0000006155041774
 30
0.0
 11
135.0000011968832
 21
3.999999384495822
 31
0.0
  0
LINE
  5
7D5
330
7BB
100
AcDbEntity
  8
0
100
AcDbLine
 10
135.0000011968832
 20
3.999999384495822
 30
0.0
 11
154.0000011968832
 21
3.999999384495822
 31
0.0
  0
HATCH
  5
7D6
330
7BB
100
AcDbEntity
  8
0
100
AcDbHatch
 10
0.0
 20
0.0
 30
0.0
210
0.0
220
0.0
230
1.0
  2
JIS_WOOD
 70
     0
 71
     0
 91
        1
 92
        7
 72
     0
 73
     1
 93
        4
 10
144.0000011968832
 20
34.29999938449578
 10
14.0000011968832
 20
34.29999938449578
 10
14.0000011968832
 20
10.69999938449587
 10
144.0000011968832
 20
10.69999938449587
 97
        0
 75
     1
 76
     1
 52
0.0
 41
4.0
 77
     0
 78
     1
 53
45.0
 43
-1242.999998803117
 44
-1238.000000615504
 45
-1.999999996643936
 46
1.999999996643937
 79
     0
 47
0.2113910845061148
 98
        3
 10
32.00401436379252
 20
23.20765044542191
 10
68.39583309511636
 20
23.84182595017751
 10
68.18425153442422
 20
21.09373924016268
1001
GradientColor1ACI
1070
     5
1001
GradientColor2ACI
1070
     2
1001
ACAD
1010
0.0
1020
0.0
1030
0.0
  0
LINE
  5
7D7
330
7BB
100
AcDbEntity
  8
0
100
AcDbLine
 10
14.0000011968832
 20
34.29999938449578
 30
0.0
 11
14.02310644490581
 21
31.02371589189011
 31
0.0
  0
LINE
  5
7D8
330
7BB
100
AcDbEntity
  8
0
100
AcDbLine
 10
14.0000011968832
 20
34.29999938449578
 30
0.0
 11
17.3155105984124
 21
34.29999938449578
 31
0.0
  0
LINE
  5
7D9
330
7BB
100
AcDbEntity
  8
0
100
AcDbLine
 10
21.322257445574
 20
34.28945801125815
 30
0.0
 11
25.30216149498574
 21
34.28945801125815
 31
0.0
  0
LINE
  5
7DA
330
7BB
100
AcDbEntity
  8
0
100
AcDbLine
 10
29.29974208532258
 20
34.29962279753431
 30
0.0
 11
33.27964613473432
 21
34.29962279753431
 31
0.0
  0
LINE
  5
7DB
330
7BB
100
AcDbEntity
  8
0
100
AcDbLine
 10
37.29925956527768
 20
34.30141694354575
 30
0.0
 11
41.27916361468942
 21
34.30141694354575
 31
0.0
  0
LINE
  5
7DC
330
7BB
100
AcDbEntity
  8
0
100
AcDbLine
 10
45.27674420502626
 20
34.31158172982191
 30
0.0
 11
49.256648254438
 21
34.31158172982191
 31
0.0
  0
LINE
  5
7DD
330
7BB
100
AcDbEntity
  8
0
100
AcDbLine
 10
53.30179867355491
 20
34.30070357149702
 30
0.0
 11
57.28170272296665
 21
34.30070357149702
 31
0.0
  0
LINE
  5
7DE
330
7BB
100
AcDbEntity
  8
0
100
AcDbLine
 10
61.27928331330349
 20
34.31086835777319
 30
0.0
 11
65.25918736271524
 21
34.31086835777319
 31
0.0
  0
LINE
  5
7DF
330
7BB
100
AcDbEntity
  8
0
100
AcDbLine
 10
69.27880079325859
 20
34.31266250378462
 30
0.0
 11
73.25870484267034
 21
34.31266250378462
 31
0.0
  0
LINE
  5
7E0
330
7BB
100
AcDbEntity
  8
0
100
AcDbLine
 10
77.25628543300718
 20
34.32282729006079
 30
0.0
 11
81.23618948241892
 21
34.32282729006079
 31
0.0
  0
LINE
  5
7E1
330
7BB
100
AcDbEntity
  8
0
100
AcDbLine
 10
85.29850211080884
 20
34.30436840558491
 30
0.0
 11
89.27840616022058
 21
34.30436840558491
 31
0.0
  0
LINE
  5
7E2
330
7BB
100
AcDbEntity
  8
0
100
AcDbLine
 10
93.27598675055742
 20
34.31453319186108
 30
0.0
 11
97.25589079996916
 21
34.31453319186108
 31
0.0
  0
LINE
  5
7E3
330
7BB
100
AcDbEntity
  8
0
100
AcDbLine
 10
101.2755042305125
 20
34.31632733787251
 30
0.0
 11
105.2554082799243
 21
34.31632733787251
 31
0.0
  0
LINE
  5
7E4
330
7BB
100
AcDbEntity
  8
0
100
AcDbLine
 10
109.2529888702611
 20
34.32649212414867
 30
0.0
 11
113.2328929196728
 21
34.32649212414867
 31
0.0
  0
LINE
  5
7E5
330
7BB
100
AcDbEntity
  8
0
100
AcDbLine
 10
117.2780433387897
 20
34.31561396582379
 30
0.0
 11
121.2579473882015
 21
34.31561396582379
 31
0.0
  0
LINE
  5
7E6
330
7BB
100
AcDbEntity
  8
0
100
AcDbLine
 10
125.2555279785383
 20
34.32577875209995
 30
0.0
 11
129.2354320279501
 21
34.32577875209995
 31
0.0
  0
LINE
  5
7E7
330
7BB
100
AcDbEntity
  8
0
100
AcDbLine
 10
133.2550454584934
 20
34.32757289811139
 30
0.0
 11
137.2349495079052
 21
34.32757289811139
 31
0.0
  0
LINE
  5
7E8
330
7BB
100
AcDbEntity
  8
0
100
AcDbLine
 10
141.232530098242
 20
34.33773768438755
 30
0.0
 11
144.005268565149
 21
34.33773768438755
 31
0.0
  0
LINE
  5
7E9
330
7BB
100
AcDbEntity
  8
0
100
AcDbLine
 10
144.005268565149
 20
33.00260995558188
 30
0.0
 11
144.005268565149
 21
34.33773768438755
 31
0.0
  0
LINE
  5
7EA
330
7BB
100
AcDbEntity
  8
0
100
AcDbLine
 10
21.69989369726318
 20
10.69930369580174
 30
0.0
 11
25.67979774667492
 21
10.69930369580174
 31
0.0
  0
LINE
  5
7EB
330
7BB
100
AcDbEntity
  8
0
100
AcDbLine
 10
29.69941117721828
 20
10.70109784181318
 30
0.0
 11
33.67931522663003
 21
10.70109784181318
 31
0.0
  0
LINE
  5
7EC
330
7BB
100
AcDbEntity
  8
0
100
AcDbLine
 10
37.67689581696686
 20
10.71126262808934
 30
0.0
 11
41.65679986637861
 21
10.71126262808934
 31
0.0
  0
LINE
  5
7ED
330
7BB
100
AcDbEntity
  8
0
100
AcDbLine
 10
45.70195028549551
 20
10.70038446976446
 30
0.0
 11
49.68185433490726
 21
10.70038446976446
 31
0.0
  0
LINE
  5
7EE
330
7BB
100
AcDbEntity
  8
0
100
AcDbLine
 10
53.6794349252441
 20
10.71054925604062
 30
0.0
 11
57.65933897465584
 21
10.71054925604062
 31
0.0
  0
LINE
  5
7EF
330
7BB
100
AcDbEntity
  8
0
100
AcDbLine
 10
61.6789524051992
 20
10.71234340205205
 30
0.0
 11
65.65885645461094
 21
10.71234340205205
 31
0.0
  0
LINE
  5
7F0
330
7BB
100
AcDbEntity
  8
0
100
AcDbLine
 10
69.65643704494778
 20
10.72250818832822
 30
0.0
 11
73.63634109435952
 21
10.72250818832822
 31
0.0
  0
LINE
  5
7F1
330
7BB
100
AcDbEntity
  8
0
100
AcDbLine
 10
77.69865372274944
 20
10.70404930385234
 30
0.0
 11
81.67855777216118
 21
10.70404930385234
 31
0.0
  0
LINE
  5
7F2
330
7BB
100
AcDbEntity
  8
0
100
AcDbLine
 10
85.67613836249803
 20
10.71421409012851
 30
0.0
 11
89.65604241190977
 21
10.71421409012851
 31
0.0
  0
LINE
  5
7F3
330
7BB
100
AcDbEntity
  8
0
100
AcDbLine
 10
93.67565584245312
 20
10.71600823613994
 30
0.0
 11
97.65555989186488
 21
10.71600823613994
 31
0.0
  0
LINE
  5
7F4
330
7BB
100
AcDbEntity
  8
0
100
AcDbLine
 10
101.6531404822017
 20
10.7261730224161
 30
0.0
 11
105.6330445316134
 21
10.7261730224161
 31
0.0
  0
LINE
  5
7F5
330
7BB
100
AcDbEntity
  8
0
100
AcDbLine
 10
109.6781949507303
 20
10.71529486409122
 30
0.0
 11
113.6580990001421
 21
10.71529486409122
 31
0.0
  0
LINE
  5
7F6
330
7BB
100
AcDbEntity
  8
0
100
AcDbLine
 10
117.6556795904789
 20
10.72545965036738
 30
0.0
 11
121.6355836398907
 21
10.72545965036738
 31
0.0
  0
LINE
  5
7F7
330
7BB
100
AcDbEntity
  8
0
100
AcDbLine
 10
125.655197070434
 20
10.72725379637882
 30
0.0
 11
129.6351011198458
 21
10.72725379637882
 31
0.0
  0
LINE
  5
7F8
330
7BB
100
AcDbEntity
  8
0
100
AcDbLine
 10
133.7032923291835
 20
10.70136726988244
 30
0.0
 11
137.6831963785953
 21
10.70136726988244
 31
0.0
  0
LINE
  5
7F9
330
7BB
100
AcDbEntity
  8
0
100
AcDbLine
 10
14.01285752836884
 20
26.96642920293675
 30
0.0
 11
14.01285752836884
 21
23.04904303931857
 31
0.0
  0
LINE
  5
7FA
330
7BB
100
AcDbEntity
  8
0
100
AcDbLine
 10
14.01403459751145
 20
18.92570973302986
 30
0.0
 11
14.01403459751145
 21
15.00832356941169
 31
0.0
  0
LINE
  5
7FB
330
7BB
100
AcDbEntity
  8
0
100
AcDbLine
 10
17.71035641273192
 20
10.68108220107183
 30
0.0
 11
14.01842493011645
 21
10.68108220107183
 31
0.0
  0
LINE
  5
7FC
330
7BB
100
AcDbEntity
  8
0
100
AcDbLine
 10
14.01842493011645
 20
10.68108220107183
 30
0.0
 11
14.01842493011645
 21
11.04994453728318
 31
0.0
  0
LINE
  5
7FD
330
7BB
100
AcDbEntity
  8
0
100
AcDbLine
 10
143.9936534633261
 20
28.95651065489778
 30
0.0
 11
143.9936534633261
 21
25.01094476450658
 31
0.0
  0
LINE
  5
7FE
330
7BB
100
AcDbEntity
  8
0
100
AcDbLine
 10
143.9943975874967
 20
21.00001807368494
 30
0.0
 11
143.9943975874967
 21
17.00113298058136
 31
0.0
  0
LINE
  5
7FF
330
7BB
100
AcDbEntity
  8
0
100
AcDbLine
 10
143.9972793774659
 20
12.99006239067671
 30
0.0
 11
143.9972793774659
 21
10.70646661161959
 31
0.0
  0
LINE
  5
800
330
7BB
100
AcDbEntity
  8
0
100
AcDbLine
 10
143.9972793774659
 20
10.70646661161959
 30
0.0
 11
141.7116411053394
 21
10.70646661161959
 31
0.0
  0
LINE
  5
801
330
7BB
100
AcDbEntity
  8
0
100
AcDbLine
 10
154.0000011968832
 20
40.99999938449582
 30
0.0
 11
154.0000011968832
 21
25.99999938449582
 31
0.0
  0
LINE
  5
802
330
7BB
100
AcDbEntity
  8
0
100
AcDbLine
 10
154.0000011968832
 20
25.99999938449582
 30
0.0
 11
158.0000011968832
 21
25.99999938449582
 31
0.0
  0
LINE
  5
803
330
7BB
100
AcDbEntity
  8
0
100
AcDbLine
 10
158.0000011968832
 20
25.99999938449582
 30
0.0
 11
158.0000011968832
 21
18.99999938449582
 31
0.0
  0
LINE
  5
804
330
7BB
100
AcDbEntity
  8
0
100
AcDbLine
 10
158.0000011968832
 20
18.99999938449582
 30
0.0
 11
154.0000011968832
 21
18.99999938449582
 31
0.0
  0
LINE
  5
805
330
7BB
100
AcDbEntity
  8
0
100
AcDbLine
 10
154.0000011968832
 20
18.99999938449582
 30
0.0
 11
154.0000011968832
 21
3.999999384495822
 31
0.0
  0
LINE
  5
806
330
7BB
100
AcDbEntity
  8
0
100
AcDbLine
 10
4.000001196883204
 20
40.99999938449582
 30
0.0
 11
4.000001196883204
 21
25.99999938449582
 31
0.0
  0
LINE
  5
807
330
7BB
100
AcDbEntity
  8
0
100
AcDbLine
 10
4.000001196883204
 20
25.99999938449582
 30
0.0
 11
0.0000011968832041
 21
25.99999938449582
 31
0.0
  0
LINE
  5
808
330
7BB
100
AcDbEntity
  8
0
100
AcDbLine
 10
0.0000011968832041
 20
25.99999938449582
 30
0.0
 11
0.0000011968832041
 21
18.99999938449582
 31
0.0
  0
LINE
  5
809
330
7BB
100
AcDbEntity
  8
0
100
AcDbLine
 10
0.0000011968832041
 20
18.99999938449582
 30
0.0
 11
4.000001196883204
 21
18.99999938449582
 31
0.0
  0
LINE
  5
80A
330
7BB
100
AcDbEntity
  8
0
100
AcDbLine
 10
4.000001196883204
 20
18.99999938449582
 30
0.0
 11
4.000001196883204
 21
3.999999384495822
 31
0.0
  0
ENDBLK
  5
80E
330
7BB
100
AcDbEntity
  8
0
100
AcDbBlockEnd
  0
BLOCK
  5
DC9
330
DC5
100
AcDbEntity
  8
0
100
AcDbBlockBegin
  2
A$C37C64810
 70
     0
 10
0.0
 20
0.0
 30
0.0
  3
A$C37C64810
  1

  0
CIRCLE
  5
DC6
330
DC5
100
AcDbEntity
  8
0
100
AcDbCircle
 10
1.600002051410228
 20
1.600000190112268
 30
0.0
 40
1.6
  0
ENDBLK
  5
DCA
330
DC5
100
AcDbEntity
  8
0
100
AcDbBlockEnd
  0
ENDSEC
  0
SECTION
  2
ENTITIES
  0
LINE
  5
291
330
1F
100
AcDbEntity
  8
0
100
AcDbLine
 10
1241.0
 20
1291.0
 30
0.0
 11
1403.0
 21
1291.0
 31
0.0
  0
LINE
  5
292
330
1F
100
AcDbEntity
  8
0
100
AcDbLine
 10
1241.0
 20
1413.0
 30
0.0
 11
1403.0
 21
1413.0
 31
0.0
  0
LINE
  5
293
330
1F
100
AcDbEntity
  8
0
100
AcDbLine
 10
1403.0
 20
1413.0
 30
0.0
 11
1403.0
 21
1291.0
 31
0.0
  0
LINE
  5
294
330
1F
100
AcDbEntity
  8
0
100
AcDbLine
 10
1241.0
 20
1413.0
 30
0.0
 11
1241.0
 21
1291.0
 31
0.0
  0
LINE
  5
297
330
1F
100
AcDbEntity
  8
0
100
AcDbLine
 10
1400.0
 20
1387.0
 30
0.0
 11
1397.0
 21
1387.0
 31
0.0
  0
LINE
  5
298
330
1F
100
AcDbEntity
  8
0
100
AcDbLine
 10
1397.0
 20
1387.0
 30
0.0
 11
1397.0
 21
1362.0
 31
0.0
  0
LINE
  5
299
330
1F
100
AcDbEntity
  8
0
100
AcDbLine
 10
1397.0
 20
1362.0
 30
0.0
 11
1400.0
 21
1362.0
 31
0.0
  0
LINE
  5
29A
330
1F
100
AcDbEntity
  8
0
100
AcDbLine
 10
1400.0
 20
1362.0
 30
0.0
 11
1400.0
 21
1387.0
 31
0.0
  0
LINE
  5
2A0
330
1F
100
AcDbEntity
  8
0
100
AcDbLine
 10
1244.0
 20
1387.0
 30
0.0
 11
1247.0
 21
1387.0
 31
0.0
  0
LINE
  5
2A1
330
1F
100
AcDbEntity
  8
0
100
AcDbLine
 10
1247.0
 20
1387.0
 30
0.0
 11
1247.0
 21
1362.0
 31
0.0
  0
LINE
  5
2A2
330
1F
100
AcDbEntity
  8
0
100
AcDbLine
 10
1247.0
 20
1362.0
 30
0.0
 11
1244.0
 21
1362.0
 31
0.0
  0
LINE
  5
2A3
330
1F
100
AcDbEntity
  8
0
100
AcDbLine
 10
1244.0
 20
1362.0
 30
0.0
 11
1244.0
 21
1387.0
 31
0.0
  0
LINE
  5
2A6
330
1F
100
AcDbEntity
  8
0
100
AcDbLine
 10
1400.0
 20
1317.0
 30
0.0
 11
1397.0
 21
1317.0
 31
0.0
  0
LINE
  5
2A7
330
1F
100
AcDbEntity
  8
0
100
AcDbLine
 10
1397.0
 20
1317.0
 30
0.0
 11
1397.0
 21
1342.0
 31
0.0
  0
LINE
  5
2A8
330
1F
100
AcDbEntity
  8
0
100
AcDbLine
 10
1397.0
 20
1342.0
 30
0.0
 11
1400.0
 21
1342.0
 31
0.0
  0
LINE
  5
2A9
330
1F
100
AcDbEntity
  8
0
100
AcDbLine
 10
1400.0
 20
1342.0
 30
0.0
 11
1400.0
 21
1317.0
 31
0.0
  0
LINE
  5
2AD
330
1F
100
AcDbEntity
  8
0
100
AcDbLine
 10
1244.0
 20
1342.0
 30
0.0
 11
1244.0
 21
1317.0
 31
0.0
  0
LINE
  5
2AE
330
1F
100
AcDbEntity
  8
0
100
AcDbLine
 10
1244.0
 20
1317.0
 30
0.0
 11
1247.0
 21
1317.0
 31
0.0
  0
LINE
  5
2AF
330
1F
100
AcDbEntity
  8
0
100
AcDbLine
 10
1247.0
 20
1317.0
 30
0.0
 11
1247.0
 21
1342.0
 31
0.0
  0
LINE
  5
2B0
330
1F
100
AcDbEntity
  8
0
100
AcDbLine
 10
1247.0
 20
1342.0
 30
0.0
 11
1244.0
 21
1342.0
 31
0.0
  0
LINE
  5
2FE
330
1F
100
AcDbEntity
  8
0
100
AcDbLine
 10
1266.0
 20
1294.0
 30
0.0
 11
1296.0
 21
1294.0
 31
0.0
  0
LINE
  5
2FF
330
1F
100
AcDbEntity
  8
0
100
AcDbLine
 10
1296.0
 20
1294.0
 30
0.0
 11
1296.0
 21
1297.0
 31
0.0
  0
LINE
  5
300
330
1F
100
AcDbEntity
  8
0
100
AcDbLine
 10
1296.0
 20
1297.0
 30
0.0
 11
1266.0
 21
1297.0
 31
0.0
  0
LINE
  5
301
330
1F
100
AcDbEntity
  8
0
100
AcDbLine
 10
1266.0
 20
1297.0
 30
0.0
 11
1266.0
 21
1294.0
 31
0.0
  0
LINE
  5
30B
330
1F
100
AcDbEntity
  8
0
100
AcDbLine
 10
1307.0
 20
1297.0
 30
0.0
 11
1337.0
 21
1297.0
 31
0.0
  0
LINE
  5
30C
330
1F
100
AcDbEntity
  8
0
100
AcDbLine
 10
1337.0
 20
1297.0
 30
0.0
 11
1337.0
 21
1294.0
 31
0.0
  0
LINE
  5
30D
330
1F
100
AcDbEntity
  8
0
100
AcDbLine
 10
1337.0
 20
1294.0
 30
0.0
 11
1307.0
 21
1294.0
 31
0.0
  0
LINE
  5
30E
330
1F
100
AcDbEntity
  8
0
100
AcDbLine
 10
1307.0
 20
1294.0
 30
0.0
 11
1307.0
 21
1297.0
 31
0.0
  0
LINE
  5
310
330
1F
100
AcDbEntity
  8
0
100
AcDbLine
 10
1348.0
 20
1297.0
 30
0.0
 11
1348.0
 21
1294.0
 31
0.0
  0
LINE
  5
311
330
1F
100
AcDbEntity
  8
0
100
AcDbLine
 10
1348.0
 20
1294.0
 30
0.0
 11
1378.0
 21
1294.0
 31
0.0
  0
LINE
  5
312
330
1F
100
AcDbEntity
  8
0
100
AcDbLine
 10
1378.0
 20
1294.0
 30
0.0
 11
1378.0
 21
1297.0
 31
0.0
  0
LINE
  5
313
330
1F
100
AcDbEntity
  8
0
100
AcDbLine
 10
1378.0
 20
1297.0
 30
0.0
 11
1348.0
 21
1297.0
 31
0.0
  0
LINE
  5
31F
330
1F
100
AcDbEntity
  8
0
100
AcDbLine
 10
1266.0
 20
1405.0
 30
0.0
 11
1296.0
 21
1405.0
 31
0.0
  0
LINE
  5
320
330
1F
100
AcDbEntity
  8
0
100
AcDbLine
 10
1296.0
 20
1405.0
 30
0.0
 11
1296.0
 21
1408.0
 31
0.0
  0
LINE
  5
321
330
1F
100
AcDbEntity
  8
0
100
AcDbLine
 10
1296.0
 20
1408.0
 30
0.0
 11
1266.0
 21
1408.0
 31
0.0
  0
LINE
  5
322
330
1F
100
AcDbEntity
  8
0
100
AcDbLine
 10
1266.0
 20
1408.0
 30
0.0
 11
1266.0
 21
1405.0
 31
0.0
  0
LINE
  5
323
330
1F
100
AcDbEntity
  8
0
100
AcDbLine
 10
1307.0
 20
1405.0
 30
0.0
 11
1337.0
 21
1405.0
 31
0.0
  0
LINE
  5
324
330
1F
100
AcDbEntity
  8
0
100
AcDbLine
 10
1337.0
 20
1405.0
 30
0.0
 11
1337.0
 21
1408.0
 31
0.0
  0
LINE
  5
325
330
1F
100
AcDbEntity
  8
0
100
AcDbLine
 10
1337.0
 20
1408.0
 30
0.0
 11
1307.0
 21
1408.0
 31
0.0
  0
LINE
  5
326
330
1F
100
AcDbEntity
  8
0
100
AcDbLine
 10
1307.0
 20
1408.0
 30
0.0
 11
1307.0
 21
1405.0
 31
0.0
  0
LINE
  5
32A
330
1F
100
AcDbEntity
  8
0
100
AcDbLine
 10
1348.0
 20
1405.0
 30
0.0
 11
1378.0
 21
1405.0
 31
0.0
  0
LINE
  5
32B
330
1F
100
AcDbEntity
  8
0
100
AcDbLine
 10
1378.0
 20
1405.0
 30
0.0
 11
1378.0
 21
1408.0
 31
0.0
  0
LINE
  5
32C
330
1F
100
AcDbEntity
  8
0
100
AcDbLine
 10
1378.0
 20
1408.0
 30
0.0
 11
1348.0
 21
1408.0
 31
0.0
  0
LINE
  5
32D
330
1F
100
AcDbEntity
  8
0
100
AcDbLine
 10
1348.0
 20
1408.0
 30
0.0
 11
1348.0
 21
1405.0
 31
0.0
  0
LINE
  5
342
330
1F
100
AcDbEntity
  8
0
100
AcDbLine
 10
1266.0
 20
1388.0
 30
0.0
 11
1269.0
 21
1388.0
 31
0.0
  0
LINE
  5
343
330
1F
100
AcDbEntity
  8
0
100
AcDbLine
 10
1269.0
 20
1388.0
 30
0.0
 11
1269.0
 21
1363.0
 31
0.0
  0
LINE
  5
345
330
1F
100
AcDbEntity
  8
0
100
AcDbLine
 10
1272.0
 20
1363.0
 30
0.0
 11
1272.0
 21
1388.0
 31
0.0
  0
LINE
  5
346
330
1F
100
AcDbEntity
  8
0
100
AcDbLine
 10
1272.0
 20
1388.0
 30
0.0
 11
1275.0
 21
1388.0
 31
0.0
  0
LINE
  5
347
330
1F
100
AcDbEntity
  8
0
100
AcDbLine
 10
1275.0
 20
1388.0
 30
0.0
 11
1275.0
 21
1363.0
 31
0.0
  0
LINE
  5
349
330
1F
100
AcDbEntity
  8
0
100
AcDbLine
 10
1278.0
 20
1363.0
 30
0.0
 11
1278.0
 21
1388.0
 31
0.0
  0
LINE
  5
34A
330
1F
100
AcDbEntity
  8
0
100
AcDbLine
 10
1278.0
 20
1388.0
 30
0.0
 11
1281.0
 21
1388.0
 31
0.0
  0
LINE
  5
34B
330
1F
100
AcDbEntity
  8
0
100
AcDbLine
 10
1281.0
 20
1388.0
 30
0.0
 11
1281.0
 21
1363.0
 31
0.0
  0
LINE
  5
356
330
1F
100
AcDbEntity
  8
0
100
AcDbLine
 10
1284.00000005494
 20
1387.999999901051
 30
0.0
 11
1284.00000005494
 21
1362.999999901051
 31
0.0
  0
LINE
  5
357
330
1F
100
AcDbEntity
  8
0
100
AcDbLine
 10
1287.00000005494
 20
1362.999999901051
 30
0.0
 11
1287.00000005494
 21
1387.999999901051
 31
0.0
  0
LINE
  5
358
330
1F
100
AcDbEntity
  8
0
100
AcDbLine
 10
1290.00000005494
 20
1387.999999901051
 30
0.0
 11
1290.00000005494
 21
1362.999999901051
 31
0.0
  0
LINE
  5
359
330
1F
100
AcDbEntity
  8
0
100
AcDbLine
 10
1293.00000005494
 20
1362.999999901051
 30
0.0
 11
1293.00000005494
 21
1387.999999901051
 31
0.0
  0
LINE
  5
35A
330
1F
100
AcDbEntity
  8
0
100
AcDbLine
 10
1296.00000005494
 20
1387.999999901051
 30
0.0
 11
1296.00000005494
 21
1362.999999901051
 31
0.0
  0
LINE
  5
36A
330
1F
100
AcDbEntity
  8
0
100
AcDbLine
 10
1299.00000010988
 20
1387.999999802102
 30
0.0
 11
1299.00000010988
 21
1362.999999802102
 31
0.0
  0
LINE
  5
36B
330
1F
100
AcDbEntity
  8
0
100
AcDbLine
 10
1302.000000109879
 20
1362.999999802102
 30
0.0
 11
1302.000000109879
 21
1387.999999802102
 31
0.0
  0
LINE
  5
36C
330
1F
100
AcDbEntity
  8
0
100
AcDbLine
 10
1305.00000010988
 20
1387.999999802102
 30
0.0
 11
1305.00000010988
 21
1362.999999802102
 31
0.0
  0
LINE
  5
36D
330
1F
100
AcDbEntity
  8
0
100
AcDbLine
 10
1308.00000010988
 20
1362.999999802102
 30
0.0
 11
1308.00000010988
 21
1387.999999802102
 31
0.0
  0
LINE
  5
36E
330
1F
100
AcDbEntity
  8
0
100
AcDbLine
 10
1311.00000010988
 20
1387.999999802102
 30
0.0
 11
1311.00000010988
 21
1362.999999802102
 31
0.0
  0
LINE
  5
36F
330
1F
100
AcDbEntity
  8
0
100
AcDbLine
 10
1314.000000164819
 20
1387.999999703154
 30
0.0
 11
1314.000000164819
 21
1362.999999703154
 31
0.0
  0
LINE
  5
370
330
1F
100
AcDbEntity
  8
0
100
AcDbLine
 10
1317.000000164819
 20
1362.999999703154
 30
0.0
 11
1317.000000164819
 21
1387.999999703154
 31
0.0
  0
LINE
  5
371
330
1F
100
AcDbEntity
  8
0
100
AcDbLine
 10
1320.000000164819
 20
1387.999999703154
 30
0.0
 11
1320.000000164819
 21
1362.999999703154
 31
0.0
  0
LINE
  5
372
330
1F
100
AcDbEntity
  8
0
100
AcDbLine
 10
1323.000000164819
 20
1362.999999703154
 30
0.0
 11
1323.000000164819
 21
1387.999999703154
 31
0.0
  0
LINE
  5
373
330
1F
100
AcDbEntity
  8
0
100
AcDbLine
 10
1326.00000016482
 20
1387.999999703154
 30
0.0
 11
1326.00000016482
 21
1362.999999703154
 31
0.0
  0
LINE
  5
3AC
330
1F
100
AcDbEntity
  8
0
100
AcDbLine
 10
1329.000000175083
 20
1362.999999802102
 30
0.0
 11
1329.000000175083
 21
1387.999999802102
 31
0.0
  0
LINE
  5
3AD
330
1F
100
AcDbEntity
  8
0
100
AcDbLine
 10
1332.000000175083
 20
1387.999999802102
 30
0.0
 11
1332.000000175083
 21
1362.999999802102
 31
0.0
  0
LINE
  5
3AE
330
1F
100
AcDbEntity
  8
0
100
AcDbLine
 10
1335.000000230023
 20
1387.999999703154
 30
0.0
 11
1335.000000230023
 21
1362.999999703154
 31
0.0
  0
LINE
  5
3AF
330
1F
100
AcDbEntity
  8
0
100
AcDbLine
 10
1338.000000230023
 20
1362.999999703154
 30
0.0
 11
1338.000000230023
 21
1387.999999703154
 31
0.0
  0
LINE
  5
3B0
330
1F
100
AcDbEntity
  8
0
100
AcDbLine
 10
1341.000000230023
 20
1387.999999703154
 30
0.0
 11
1341.000000230023
 21
1362.999999703154
 31
0.0
  0
LINE
  5
3B1
330
1F
100
AcDbEntity
  8
0
100
AcDbLine
 10
1344.000000230023
 20
1362.999999703154
 30
0.0
 11
1344.000000230023
 21
1387.999999703154
 31
0.0
  0
LINE
  5
3B2
330
1F
100
AcDbEntity
  8
0
100
AcDbLine
 10
1347.000000230023
 20
1387.999999703154
 30
0.0
 11
1347.000000230023
 21
1362.999999703154
 31
0.0
  0
LINE
  5
3B3
330
1F
100
AcDbEntity
  8
0
100
AcDbLine
 10
1350.000000284963
 20
1387.999999604205
 30
0.0
 11
1350.000000284963
 21
1362.999999604205
 31
0.0
  0
LINE
  5
3B4
330
1F
100
AcDbEntity
  8
0
100
AcDbLine
 10
1353.000000284963
 20
1362.999999604205
 30
0.0
 11
1353.000000284963
 21
1387.999999604205
 31
0.0
  0
LINE
  5
3B5
330
1F
100
AcDbEntity
  8
0
100
AcDbLine
 10
1356.000000284963
 20
1387.999999604205
 30
0.0
 11
1356.000000284963
 21
1362.999999604205
 31
0.0
  0
LINE
  5
3B6
330
1F
100
AcDbEntity
  8
0
100
AcDbLine
 10
1359.000000284963
 20
1362.999999604205
 30
0.0
 11
1359.000000284963
 21
1387.999999604205
 31
0.0
  0
LINE
  5
3B7
330
1F
100
AcDbEntity
  8
0
100
AcDbLine
 10
1362.000000284963
 20
1387.999999604205
 30
0.0
 11
1362.000000284963
 21
1362.999999604205
 31
0.0
  0
LINE
  5
3C1
330
1F
100
AcDbEntity
  8
0
100
AcDbLine
 10
1365.000003658592
 20
1362.999999505256
 30
0.0
 11
1365.000003658592
 21
1387.999999505256
 31
0.0
  0
LINE
  5
3C2
330
1F
100
AcDbEntity
  8
0
100
AcDbLine
 10
1368.000003658592
 20
1387.999999505256
 30
0.0
 11
1368.000003658592
 21
1362.999999505256
 31
0.0
  0
LINE
  5
3C3
330
1F
100
AcDbEntity
  8
0
100
AcDbLine
 10
1371.000003658592
 20
1362.999999505256
 30
0.0
 11
1371.000003658592
 21
1387.999999505256
 31
0.0
  0
LINE
  5
3C4
330
1F
100
AcDbEntity
  8
0
100
AcDbLine
 10
1374.000003658592
 20
1387.999999505256
 30
0.0
 11
1374.000003658592
 21
1362.999999505256
 31
0.0
  0
LINE
  5
3EE
330
1F
100
AcDbEntity
  8
0
100
AcDbLine
 10
1269.00000005494
 20
1342.999999901051
 30
0.0
 11
1269.00000005494
 21
1317.999999901051
 31
0.0
  0
LINE
  5
3EF
330
1F
100
AcDbEntity
  8
0
100
AcDbLine
 10
1272.00000005494
 20
1317.999999901051
 30
0.0
 11
1272.00000005494
 21
1342.999999901051
 31
0.0
  0
LINE
  5
3F0
330
1F
100
AcDbEntity
  8
0
100
AcDbLine
 10
1275.00000005494
 20
1342.999999901051
 30
0.0
 11
1275.00000005494
 21
1317.999999901051
 31
0.0
  0
LINE
  5
3F1
330
1F
100
AcDbEntity
  8
0
100
AcDbLine
 10
1278.00000005494
 20
1317.999999901051
 30
0.0
 11
1278.00000005494
 21
1342.999999901051
 31
0.0
  0
LINE
  5
3F2
330
1F
100
AcDbEntity
  8
0
100
AcDbLine
 10
1281.00000005494
 20
1342.999999901051
 30
0.0
 11
1281.00000005494
 21
1317.999999901051
 31
0.0
  0
LINE
  5
3F3
330
1F
100
AcDbEntity
  8
0
100
AcDbLine
 10
1284.00000010988
 20
1342.999999802102
 30
0.0
 11
1284.00000010988
 21
1317.999999802103
 31
0.0
  0
LINE
  5
3F4
330
1F
100
AcDbEntity
  8
0
100
AcDbLine
 10
1287.00000010988
 20
1317.999999802103
 30
0.0
 11
1287.00000010988
 21
1342.999999802102
 31
0.0
  0
LINE
  5
3F5
330
1F
100
AcDbEntity
  8
0
100
AcDbLine
 10
1290.00000010988
 20
1342.999999802102
 30
0.0
 11
1290.00000010988
 21
1317.999999802103
 31
0.0
  0
LINE
  5
3F6
330
1F
100
AcDbEntity
  8
0
100
AcDbLine
 10
1293.00000010988
 20
1317.999999802103
 30
0.0
 11
1293.00000010988
 21
1342.999999802102
 31
0.0
  0
LINE
  5
3F7
330
1F
100
AcDbEntity
  8
0
100
AcDbLine
 10
1296.000000109879
 20
1342.999999802102
 30
0.0
 11
1296.000000109879
 21
1317.999999802103
 31
0.0
  0
LINE
  5
3F8
330
1F
100
AcDbEntity
  8
0
100
AcDbLine
 10
1299.000000164819
 20
1342.999999703154
 30
0.0
 11
1299.000000164819
 21
1317.999999703154
 31
0.0
  0
LINE
  5
3F9
330
1F
100
AcDbEntity
  8
0
100
AcDbLine
 10
1302.000000164819
 20
1317.999999703154
 30
0.0
 11
1302.000000164819
 21
1342.999999703154
 31
0.0
  0
LINE
  5
3FA
330
1F
100
AcDbEntity
  8
0
100
AcDbLine
 10
1305.000000164819
 20
1342.999999703154
 30
0.0
 11
1305.000000164819
 21
1317.999999703154
 31
0.0
  0
LINE
  5
3FB
330
1F
100
AcDbEntity
  8
0
100
AcDbLine
 10
1308.000000164819
 20
1317.999999703154
 30
0.0
 11
1308.000000164819
 21
1342.999999703154
 31
0.0
  0
LINE
  5
3FC
330
1F
100
AcDbEntity
  8
0
100
AcDbLine
 10
1311.000000164819
 20
1342.999999703154
 30
0.0
 11
1311.000000164819
 21
1317.999999703154
 31
0.0
  0
LINE
  5
3FD
330
1F
100
AcDbEntity
  8
0
100
AcDbLine
 10
1314.000000219759
 20
1342.999999604205
 30
0.0
 11
1314.000000219759
 21
1317.999999604205
 31
0.0
  0
LINE
  5
3FE
330
1F
100
AcDbEntity
  8
0
100
AcDbLine
 10
1317.000000219759
 20
1317.999999604205
 30
0.0
 11
1317.000000219759
 21
1342.999999604205
 31
0.0
  0
LINE
  5
3FF
330
1F
100
AcDbEntity
  8
0
100
AcDbLine
 10
1320.000000219759
 20
1342.999999604205
 30
0.0
 11
1320.000000219759
 21
1317.999999604205
 31
0.0
  0
LINE
  5
400
330
1F
100
AcDbEntity
  8
0
100
AcDbLine
 10
1323.000000219759
 20
1317.999999604205
 30
0.0
 11
1323.000000219759
 21
1342.999999604205
 31
0.0
  0
LINE
  5
401
330
1F
100
AcDbEntity
  8
0
100
AcDbLine
 10
1326.000000219759
 20
1342.999999604205
 30
0.0
 11
1326.000000219759
 21
1317.999999604205
 31
0.0
  0
LINE
  5
402
330
1F
100
AcDbEntity
  8
0
100
AcDbLine
 10
1329.000000230023
 20
1317.999999703154
 30
0.0
 11
1329.000000230023
 21
1342.999999703154
 31
0.0
  0
LINE
  5
403
330
1F
100
AcDbEntity
  8
0
100
AcDbLine
 10
1332.000000230023
 20
1342.999999703154
 30
0.0
 11
1332.000000230023
 21
1317.999999703154
 31
0.0
  0
LINE
  5
404
330
1F
100
AcDbEntity
  8
0
100
AcDbLine
 10
1335.000000284963
 20
1342.999999604205
 30
0.0
 11
1335.000000284963
 21
1317.999999604205
 31
0.0
  0
LINE
  5
405
330
1F
100
AcDbEntity
  8
0
100
AcDbLine
 10
1338.000000284963
 20
1317.999999604205
 30
0.0
 11
1338.000000284963
 21
1342.999999604205
 31
0.0
  0
LINE
  5
406
330
1F
100
AcDbEntity
  8
0
100
AcDbLine
 10
1341.000000284963
 20
1342.999999604205
 30
0.0
 11
1341.000000284963
 21
1317.999999604205
 31
0.0
  0
LINE
  5
407
330
1F
100
AcDbEntity
  8
0
100
AcDbLine
 10
1344.000000284963
 20
1317.999999604205
 30
0.0
 11
1344.000000284963
 21
1342.999999604205
 31
0.0
  0
LINE
  5
408
330
1F
100
AcDbEntity
  8
0
100
AcDbLine
 10
1347.000000284963
 20
1342.999999604205
 30
0.0
 11
1347.000000284963
 21
1317.999999604205
 31
0.0
  0
LINE
  5
409
330
1F
100
AcDbEntity
  8
0
100
AcDbLine
 10
1350.000000339903
 20
1342.999999505256
 30
0.0
 11
1350.000000339903
 21
1317.999999505256
 31
0.0
  0
LINE
  5
40A
330
1F
100
AcDbEntity
  8
0
100
AcDbLine
 10
1353.000000339903
 20
1317.999999505256
 30
0.0
 11
1353.000000339903
 21
1342.999999505256
 31
0.0
  0
LINE
  5
40B
330
1F
100
AcDbEntity
  8
0
100
AcDbLine
 10
1356.000000339903
 20
1342.999999505256
 30
0.0
 11
1356.000000339903
 21
1317.999999505256
 31
0.0
  0
LINE
  5
40C
330
1F
100
AcDbEntity
  8
0
100
AcDbLine
 10
1359.000000339902
 20
1317.999999505256
 30
0.0
 11
1359.000000339902
 21
1342.999999505256
 31
0.0
  0
LINE
  5
40D
330
1F
100
AcDbEntity
  8
0
100
AcDbLine
 10
1362.000000339903
 20
1342.999999505256
 30
0.0
 11
1362.000000339903
 21
1317.999999505256
 31
0.0
  0
LINE
  5
40E
330
1F
100
AcDbEntity
  8
0
100
AcDbLine
 10
1365.000003713532
 20
1317.999999406308
 30
0.0
 11
1365.000003713532
 21
1342.999999406307
 31
0.0
  0
LINE
  5
40F
330
1F
100
AcDbEntity
  8
0
100
AcDbLine
 10
1368.000003713532
 20
1342.999999406307
 30
0.0
 11
1368.000003713532
 21
1317.999999406308
 31
0.0
  0
LINE
  5
410
330
1F
100
AcDbEntity
  8
0
100
AcDbLine
 10
1371.000003713532
 20
1317.999999406308
 30
0.0
 11
1371.000003713532
 21
1342.999999406307
 31
0.0
  0
LINE
  5
411
330
1F
100
AcDbEntity
  8
0
100
AcDbLine
 10
1374.000003713532
 20
1342.999999406307
 30
0.0
 11
1374.000003713532
 21
1317.999999406308
 31
0.0
  0
LINE
  5
415
330
1F
100
AcDbEntity
  8
0
100
AcDbLine
 10
1266.0
 20
1388.0
 30
0.0
 11
1266.0
 21
1363.0
 31
0.0
  0
LINE
  5
416
330
1F
100
AcDbEntity
  8
0
100
AcDbLine
 10
1266.0
 20
1363.0
 30
0.0
 11
1269.0
 21
1363.0
 31
0.0
  0
LINE
  5
417
330
1F
100
AcDbEntity
  8
0
100
AcDbLine
 10
1269.00000005494
 20
1342.999999901051
 30
0.0
 11
1266.00000005494
 21
1342.999999901051
 31
0.0
  0
LINE
  5
418
330
1F
100
AcDbEntity
  8
0
100
AcDbLine
 10
1266.00000005494
 20
1342.999999901051
 30
0.0
 11
1266.00000005494
 21
1317.999999901051
 31
0.0
  0
LINE
  5
419
330
1F
100
AcDbEntity
  8
0
100
AcDbLine
 10
1266.00000005494
 20
1317.999999901051
 30
0.0
 11
1269.00000005494
 21
1317.999999901051
 31
0.0
  0
LINE
  5
420
330
1F
100
AcDbEntity
  8
0
100
AcDbLine
 10
1274.999997640485
 20
1343.000000492709
 30
0.0
 11
1271.999997640485
 21
1343.000000492709
 31
0.0
  0
LINE
  5
427
330
1F
100
AcDbEntity
  8
0
100
AcDbLine
 10
1280.999997640485
 20
1343.000000492709
 30
0.0
 11
1277.999997640485
 21
1343.000000492709
 31
0.0
  0
LINE
  5
42E
330
1F
100
AcDbEntity
  8
0
100
AcDbLine
 10
1286.999997695425
 20
1343.00000039376
 30
0.0
 11
1283.999997695425
 21
1343.00000039376
 31
0.0
  0
LINE
  5
438
330
1F
100
AcDbEntity
  8
0
100
AcDbLine
 10
1292.999997695425
 20
1343.00000039376
 30
0.0
 11
1289.999997695425
 21
1343.00000039376
 31
0.0
  0
LINE
  5
439
330
1F
100
AcDbEntity
  8
0
100
AcDbLine
 10
1298.99999528097
 20
1343.000000985419
 30
0.0
 11
1295.99999528097
 21
1343.000000985419
 31
0.0
  0
LINE
  5
43A
330
1F
100
AcDbEntity
  8
0
100
AcDbLine
 10
1304.99999528097
 20
1343.000000985419
 30
0.0
 11
1301.99999528097
 21
1343.000000985419
 31
0.0
  0
LINE
  5
43B
330
1F
100
AcDbEntity
  8
0
100
AcDbLine
 10
1310.99999533591
 20
1343.00000088647
 30
0.0
 11
1307.99999533591
 21
1343.00000088647
 31
0.0
  0
LINE
  5
445
330
1F
100
AcDbEntity
  8
0
100
AcDbLine
 10
1316.999997805305
 20
1343.000000195863
 30
0.0
 11
1313.999997805305
 21
1343.000000195863
 31
0.0
  0
LINE
  5
446
330
1F
100
AcDbEntity
  8
0
100
AcDbLine
 10
1322.99999539085
 20
1343.000000787521
 30
0.0
 11
1319.99999539085
 21
1343.000000787521
 31
0.0
  0
LINE
  5
447
330
1F
100
AcDbEntity
  8
0
100
AcDbLine
 10
1328.99999539085
 20
1343.000000787521
 30
0.0
 11
1325.99999539085
 21
1343.000000787521
 31
0.0
  0
LINE
  5
448
330
1F
100
AcDbEntity
  8
0
100
AcDbLine
 10
1334.99999544579
 20
1343.000000688572
 30
0.0
 11
1331.99999544579
 21
1343.000000688572
 31
0.0
  0
LINE
  5
452
330
1F
100
AcDbEntity
  8
0
100
AcDbLine
 10
1340.999997870508
 20
1343.000000195863
 30
0.0
 11
1337.999997870508
 21
1343.000000195863
 31
0.0
  0
LINE
  5
453
330
1F
100
AcDbEntity
  8
0
100
AcDbLine
 10
1346.999995456053
 20
1343.000000787521
 30
0.0
 11
1343.999995456053
 21
1343.000000787521
 31
0.0
  0
LINE
  5
454
330
1F
100
AcDbEntity
  8
0
100
AcDbLine
 10
1352.999995456053
 20
1343.000000787521
 30
0.0
 11
1349.999995456053
 21
1343.000000787521
 31
0.0
  0
LINE
  5
455
330
1F
100
AcDbEntity
  8
0
100
AcDbLine
 10
1358.999995510993
 20
1343.000000688572
 30
0.0
 11
1355.999995510993
 21
1343.000000688572
 31
0.0
  0
LINE
  5
45F
330
1F
100
AcDbEntity
  8
0
100
AcDbLine
 10
1286.999997640485
 20
1388.000000492709
 30
0.0
 11
1283.999997640485
 21
1388.000000492709
 31
0.0
  0
LINE
  5
460
330
1F
100
AcDbEntity
  8
0
100
AcDbLine
 10
1292.99999522603
 20
1388.000001084367
 30
0.0
 11
1289.99999522603
 21
1388.000001084367
 31
0.0
  0
LINE
  5
461
330
1F
100
AcDbEntity
  8
0
100
AcDbLine
 10
1298.99999522603
 20
1388.000001084367
 30
0.0
 11
1295.99999522603
 21
1388.000001084367
 31
0.0
  0
LINE
  5
462
330
1F
100
AcDbEntity
  8
0
100
AcDbLine
 10
1304.99999528097
 20
1388.000000985419
 30
0.0
 11
1301.99999528097
 21
1388.000000985419
 31
0.0
  0
LINE
  5
46C
330
1F
100
AcDbEntity
  8
0
100
AcDbLine
 10
1310.999997695425
 20
1388.000000393761
 30
0.0
 11
1307.999997695425
 21
1388.000000393761
 31
0.0
  0
LINE
  5
46D
330
1F
100
AcDbEntity
  8
0
100
AcDbLine
 10
1316.99999528097
 20
1388.000000985419
 30
0.0
 11
1313.99999528097
 21
1388.000000985419
 31
0.0
  0
LINE
  5
46E
330
1F
100
AcDbEntity
  8
0
100
AcDbLine
 10
1322.99999528097
 20
1388.000000985419
 30
0.0
 11
1319.99999528097
 21
1388.000000985419
 31
0.0
  0
LINE
  5
46F
330
1F
100
AcDbEntity
  8
0
100
AcDbLine
 10
1328.99999533591
 20
1388.00000088647
 30
0.0
 11
1325.99999533591
 21
1388.00000088647
 31
0.0
  0
LINE
  5
479
330
1F
100
AcDbEntity
  8
0
100
AcDbLine
 10
1334.999997760628
 20
1388.000000393761
 30
0.0
 11
1331.999997760628
 21
1388.000000393761
 31
0.0
  0
LINE
  5
47A
330
1F
100
AcDbEntity
  8
0
100
AcDbLine
 10
1340.999995346174
 20
1388.000000985419
 30
0.0
 11
1337.999995346174
 21
1388.000000985419
 31
0.0
  0
LINE
  5
47B
330
1F
100
AcDbEntity
  8
0
100
AcDbLine
 10
1346.999995346173
 20
1388.000000985419
 30
0.0
 11
1343.999995346174
 21
1388.000000985419
 31
0.0
  0
LINE
  5
47C
330
1F
100
AcDbEntity
  8
0
100
AcDbLine
 10
1352.999995401114
 20
1388.00000088647
 30
0.0
 11
1349.999995401114
 21
1388.00000088647
 31
0.0
  0
LINE
  5
486
330
1F
100
AcDbEntity
  8
0
100
AcDbLine
 10
1358.999997870508
 20
1388.000000195863
 30
0.0
 11
1355.999997870508
 21
1388.000000195863
 31
0.0
  0
LINE
  5
487
330
1F
100
AcDbEntity
  8
0
100
AcDbLine
 10
1364.999995456053
 20
1388.000000787521
 30
0.0
 11
1361.999995456053
 21
1388.000000787521
 31
0.0
  0
LINE
  5
488
330
1F
100
AcDbEntity
  8
0
100
AcDbLine
 10
1370.999995456053
 20
1388.000000787521
 30
0.0
 11
1367.999995456053
 21
1388.000000787521
 31
0.0
  0
LINE
  5
489
330
1F
100
AcDbEntity
  8
0
100
AcDbLine
 10
1376.999995510993
 20
1388.000000688573
 30
0.0
 11
1373.999995510993
 21
1388.000000688573
 31
0.0
  0
LINE
  5
493
330
1F
100
AcDbEntity
  8
0
100
AcDbLine
 10
1358.999997870508
 20
1363.000000195863
 30
0.0
 11
1355.999997870508
 21
1363.000000195863
 31
0.0
  0
LINE
  5
494
330
1F
100
AcDbEntity
  8
0
100
AcDbLine
 10
1364.999995456053
 20
1363.000000787521
 30
0.0
 11
1361.999995456053
 21
1363.000000787521
 31
0.0
  0
LINE
  5
495
330
1F
100
AcDbEntity
  8
0
100
AcDbLine
 10
1370.999995456053
 20
1363.000000787521
 30
0.0
 11
1367.999995456053
 21
1363.000000787521
 31
0.0
  0
LINE
  5
496
330
1F
100
AcDbEntity
  8
0
100
AcDbLine
 10
1376.999995510993
 20
1363.000000688573
 30
0.0
 11
1373.999995510993
 21
1363.000000688573
 31
0.0
  0
LINE
  5
4A0
330
1F
100
AcDbEntity
  8
0
100
AcDbLine
 10
1334.999997760628
 20
1363.000000393761
 30
0.0
 11
1331.999997760628
 21
1363.000000393761
 31
0.0
  0
LINE
  5
4A1
330
1F
100
AcDbEntity
  8
0
100
AcDbLine
 10
1340.999995346174
 20
1363.000000985419
 30
0.0
 11
1337.999995346174
 21
1363.000000985419
 31
0.0
  0
LINE
  5
4A2
330
1F
100
AcDbEntity
  8
0
100
AcDbLine
 10
1346.999995346173
 20
1363.000000985419
 30
0.0
 11
1343.999995346174
 21
1363.000000985419
 31
0.0
  0
LINE
  5
4A3
330
1F
100
AcDbEntity
  8
0
100
AcDbLine
 10
1352.999995401114
 20
1363.00000088647
 30
0.0
 11
1349.999995401114
 21
1363.00000088647
 31
0.0
  0
LINE
  5
4BA
330
1F
100
AcDbEntity
  8
0
100
AcDbLine
 10
1310.999997695425
 20
1363.000000393761
 30
0.0
 11
1307.999997695425
 21
1363.000000393761
 31
0.0
  0
LINE
  5
4BB
330
1F
100
AcDbEntity
  8
0
100
AcDbLine
 10
1316.99999528097
 20
1363.000000985419
 30
0.0
 11
1313.99999528097
 21
1363.000000985419
 31
0.0
  0
LINE
  5
4BC
330
1F
100
AcDbEntity
  8
0
100
AcDbLine
 10
1322.99999528097
 20
1363.000000985419
 30
0.0
 11
1319.99999528097
 21
1363.000000985419
 31
0.0
  0
LINE
  5
4BD
330
1F
100
AcDbEntity
  8
0
100
AcDbLine
 10
1328.99999533591
 20
1363.00000088647
 30
0.0
 11
1325.99999533591
 21
1363.00000088647
 31
0.0
  0
LINE
  5
4C7
330
1F
100
AcDbEntity
  8
0
100
AcDbLine
 10
1286.999997640485
 20
1363.000000492709
 30
0.0
 11
1283.999997640485
 21
1363.000000492709
 31
0.0
  0
LINE
  5
4C8
330
1F
100
AcDbEntity
  8
0
100
AcDbLine
 10
1292.99999522603
 20
1363.000001084367
 30
0.0
 11
1289.99999522603
 21
1363.000001084367
 31
0.0
  0
LINE
  5
4C9
330
1F
100
AcDbEntity
  8
0
100
AcDbLine
 10
1298.99999522603
 20
1363.000001084367
 30
0.0
 11
1295.99999522603
 21
1363.000001084367
 31
0.0
  0
LINE
  5
4CA
330
1F
100
AcDbEntity
  8
0
100
AcDbLine
 10
1304.99999528097
 20
1363.000000985419
 30
0.0
 11
1301.99999528097
 21
1363.000000985419
 31
0.0
  0
LINE
  5
4D1
330
1F
100
AcDbEntity
  8
0
100
AcDbLine
 10
1271.999997530605
 20
1362.999999901051
 30
0.0
 11
1274.999997530605
 21
1362.999999901051
 31
0.0
  0
LINE
  5
4D8
330
1F
100
AcDbEntity
  8
0
100
AcDbLine
 10
1277.999997530605
 20
1362.999999901051
 30
0.0
 11
1280.999997530605
 21
1362.999999901051
 31
0.0
  0
LINE
  5
4E8
330
1F
100
AcDbEntity
  8
0
100
AcDbLine
 10
1275.0000002747
 20
1318.000001084367
 30
0.0
 11
1272.0000002747
 21
1318.000001084367
 31
0.0
  0
LINE
  5
4E9
330
1F
100
AcDbEntity
  8
0
100
AcDbLine
 10
1281.0000002747
 20
1318.000001084367
 30
0.0
 11
1278.0000002747
 21
1318.000001084367
 31
0.0
  0
LINE
  5
4EA
330
1F
100
AcDbEntity
  8
0
100
AcDbLine
 10
1287.00000032964
 20
1318.000000985419
 30
0.0
 11
1284.00000032964
 21
1318.000000985419
 31
0.0
  0
LINE
  5
4EB
330
1F
100
AcDbEntity
  8
0
100
AcDbLine
 10
1293.00000032964
 20
1318.000000985419
 30
0.0
 11
1290.00000032964
 21
1318.000000985419
 31
0.0
  0
LINE
  5
4EC
330
1F
100
AcDbEntity
  8
0
100
AcDbLine
 10
1298.999997915185
 20
1318.000001577077
 30
0.0
 11
1295.999997915185
 21
1318.000001577077
 31
0.0
  0
LINE
  5
4F7
330
1F
100
AcDbEntity
  8
0
100
AcDbLine
 10
1305.00000038458
 20
1318.00000088647
 30
0.0
 11
1302.00000038458
 21
1318.00000088647
 31
0.0
  0
LINE
  5
4F8
330
1F
100
AcDbEntity
  8
0
100
AcDbLine
 10
1311.00000038458
 20
1318.00000088647
 30
0.0
 11
1308.00000038458
 21
1318.00000088647
 31
0.0
  0
LINE
  5
4F9
330
1F
100
AcDbEntity
  8
0
100
AcDbLine
 10
1317.000000439519
 20
1318.000000787521
 30
0.0
 11
1314.00000043952
 21
1318.000000787521
 31
0.0
  0
LINE
  5
4FA
330
1F
100
AcDbEntity
  8
0
100
AcDbLine
 10
1323.00000043952
 20
1318.000000787521
 30
0.0
 11
1320.00000043952
 21
1318.000000787521
 31
0.0
  0
LINE
  5
4FB
330
1F
100
AcDbEntity
  8
0
100
AcDbLine
 10
1328.999998025065
 20
1318.000001379179
 30
0.0
 11
1325.999998025065
 21
1318.000001379179
 31
0.0
  0
LINE
  5
506
330
1F
100
AcDbEntity
  8
0
100
AcDbLine
 10
1335.000000449783
 20
1318.00000088647
 30
0.0
 11
1332.000000449783
 21
1318.00000088647
 31
0.0
  0
LINE
  5
507
330
1F
100
AcDbEntity
  8
0
100
AcDbLine
 10
1341.000000449783
 20
1318.00000088647
 30
0.0
 11
1338.000000449783
 21
1318.00000088647
 31
0.0
  0
LINE
  5
508
330
1F
100
AcDbEntity
  8
0
100
AcDbLine
 10
1347.000000504723
 20
1318.000000787521
 30
0.0
 11
1344.000000504723
 21
1318.000000787521
 31
0.0
  0
LINE
  5
509
330
1F
100
AcDbEntity
  8
0
100
AcDbLine
 10
1353.000000504723
 20
1318.000000787521
 30
0.0
 11
1350.000000504723
 21
1318.000000787521
 31
0.0
  0
LINE
  5
50A
330
1F
100
AcDbEntity
  8
0
100
AcDbLine
 10
1358.999998090268
 20
1318.000001379179
 30
0.0
 11
1355.999998090268
 21
1318.000001379179
 31
0.0
  0
LINE
  5
513
330
1F
100
AcDbEntity
  8
0
100
AcDbLine
 10
1364.999998076383
 20
1343.000000983385
 30
0.0
 11
1361.999998076383
 21
1343.000000983385
 31
0.0
  0
LINE
  5
514
330
1F
100
AcDbEntity
  8
0
100
AcDbLine
 10
1370.999998076383
 20
1343.000000983385
 30
0.0
 11
1367.999998076383
 21
1343.000000983385
 31
0.0
  0
LINE
  5
515
330
1F
100
AcDbEntity
  8
0
100
AcDbLine
 10
1376.999998131323
 20
1343.000000884436
 30
0.0
 11
1373.999998131323
 21
1343.000000884436
 31
0.0
  0
LINE
  5
51E
330
1F
100
AcDbEntity
  8
0
100
AcDbLine
 10
1364.999998076383
 20
1318.000000983384
 30
0.0
 11
1361.999998076383
 21
1318.000000983384
 31
0.0
  0
LINE
  5
51F
330
1F
100
AcDbEntity
  8
0
100
AcDbLine
 10
1370.999998076383
 20
1318.000000983384
 30
0.0
 11
1367.999998076383
 21
1318.000000983384
 31
0.0
  0
LINE
  5
520
330
1F
100
AcDbEntity
  8
0
100
AcDbLine
 10
1376.999998131323
 20
1318.000000884436
 30
0.0
 11
1373.999998131323
 21
1318.000000884436
 31
0.0
  0
LINE
  5
52E
330
1F
100
AcDbEntity
  8
0
100
AcDbLine
 10
1376.999995544806
 20
1343.000001968295
 30
0.0
 11
1376.999995544806
 21
1318.000001968295
 31
0.0
  0
LINE
  5
535
330
1F
100
AcDbEntity
  8
0
100
AcDbLine
 10
1376.999992924476
 20
1388.000001772432
 30
0.0
 11
1376.999992924476
 21
1363.000001772432
 31
0.0
  0
LINE
  5
544
330
1F
100
AcDbEntity
  8
0
100
AcDbLine
 10
1296.0
 20
1285.0
 30
0.0
 11
1266.0
 21
1285.0
 31
0.0
  0
LINE
  5
546
330
1F
100
AcDbEntity
  8
0
100
AcDbLine
 10
1307.0
 20
1279.0
 30
0.0
 11
1307.0
 21
1285.0
 31
0.0
  0
LINE
  5
548
330
1F
100
AcDbEntity
  8
0
100
AcDbLine
 10
1337.0
 20
1285.0
 30
0.0
 11
1337.0
 21
1279.0
 31
0.0
  0
LINE
  5
549
330
1F
100
AcDbEntity
  8
0
100
AcDbLine
 10
1348.0
 20
1279.0
 30
0.0
 11
1348.0
 21
1285.0
 31
0.0
  0
LINE
  5
54A
330
1F
100
AcDbEntity
  8
0
100
AcDbLine
 10
1348.0
 20
1285.0
 30
0.0
 11
1378.0
 21
1285.0
 31
0.0
  0
LINE
  5
54B
330
1F
100
AcDbEntity
  8
0
100
AcDbLine
 10
1378.0
 20
1285.0
 30
0.0
 11
1378.0
 21
1279.0
 31
0.0
  0
LINE
  5
54C
330
1F
100
AcDbEntity
  8
0
100
AcDbLine
 10
1378.0
 20
1279.0
 30
0.0
 11
1397.0
 21
1279.0
 31
0.0
  0
LINE
  5
54D
330
1F
100
AcDbEntity
  8
0
100
AcDbLine
 10
1247.0
 20
1279.0
 30
0.0
 11
1266.0
 21
1279.0
 31
0.0
  0
LINE
  5
54E
330
1F
100
AcDbEntity
  8
0
100
AcDbLine
 10
1266.0
 20
1285.0
 30
0.0
 11
1266.0
 21
1279.0
 31
0.0
  0
LINE
  5
54F
330
1F
100
AcDbEntity
  8
0
100
AcDbLine
 10
1296.0
 20
1285.0
 30
0.0
 11
1296.0
 21
1279.0
 31
0.0
  0
LINE
  5
550
330
1F
100
AcDbEntity
  8
0
100
AcDbLine
 10
1307.0
 20
1285.0
 30
0.0
 11
1337.0
 21
1285.0
 31
0.0
  0
LINE
  5
551
330
1F
100
AcDbEntity
  8
0
100
AcDbLine
 10
1296.0
 20
1279.0
 30
0.0
 11
1307.0
 21
1279.0
 31
0.0
  0
LINE
  5
552
330
1F
100
AcDbEntity
  8
0
100
AcDbLine
 10
1337.0
 20
1279.0
 30
0.0
 11
1348.0
 21
1279.0
 31
0.0
  0
LINE
  5
557
330
1F
100
AcDbEntity
  8
0
100
AcDbLine
 10
1247.0
 20
1242.0
 30
0.0
 11
1266.0
 21
1242.0
 31
0.0
  0
LINE
  5
558
330
1F
100
AcDbEntity
  8
0
100
AcDbLine
 10
1266.0
 20
1242.0
 30
0.0
 11
1266.0
 21
1238.0
 31
0.0
  0
LINE
  5
559
330
1F
100
AcDbEntity
  8
0
100
AcDbLine
 10
1266.0
 20
1238.0
 30
0.0
 11
1296.0
 21
1238.0
 31
0.0
  0
LINE
  5
571
330
1F
100
AcDbEntity
  8
0
100
AcDbLine
 10
1296.0
 20
1238.0
 30
0.0
 11
1296.0
 21
1242.0
 31
0.0
  0
LINE
  5
572
330
1F
100
AcDbEntity
  8
0
100
AcDbLine
 10
1296.0
 20
1242.0
 30
0.0
 11
1307.0
 21
1242.0
 31
0.0
  0
LINE
  5
573
330
1F
100
AcDbEntity
  8
0
100
AcDbLine
 10
1307.0
 20
1242.0
 30
0.0
 11
1307.0
 21
1238.0
 31
0.0
  0
LINE
  5
574
330
1F
100
AcDbEntity
  8
0
100
AcDbLine
 10
1307.0
 20
1238.0
 30
0.0
 11
1337.0
 21
1238.0
 31
0.0
  0
LINE
  5
575
330
1F
100
AcDbEntity
  8
0
100
AcDbLine
 10
1337.0
 20
1238.0
 30
0.0
 11
1337.0
 21
1242.0
 31
0.0
  0
LINE
  5
576
330
1F
100
AcDbEntity
  8
0
100
AcDbLine
 10
1337.0
 20
1242.0
 30
0.0
 11
1348.0
 21
1242.0
 31
0.0
  0
LINE
  5
577
330
1F
100
AcDbEntity
  8
0
100
AcDbLine
 10
1348.0
 20
1242.0
 30
0.0
 11
1348.0
 21
1238.0
 31
0.0
  0
LINE
  5
578
330
1F
100
AcDbEntity
  8
0
100
AcDbLine
 10
1348.0
 20
1238.0
 30
0.0
 11
1378.0
 21
1238.0
 31
0.0
  0
LINE
  5
579
330
1F
100
AcDbEntity
  8
0
100
AcDbLine
 10
1378.0
 20
1238.0
 30
0.0
 11
1378.0
 21
1242.0
 31
0.0
  0
LINE
  5
57A
330
1F
100
AcDbEntity
  8
0
100
AcDbLine
 10
1378.0
 20
1242.0
 30
0.0
 11
1397.0
 21
1242.0
 31
0.0
  0
LINE
  5
5C3
330
1F
100
AcDbEntity
  8
0
100
AcDbLine
 10
1257.0
 20
1272.3
 30
0.0
 11
1257.023105248022
 21
1269.023716507394
 31
0.0
  0
LINE
  5
5C4
330
1F
100
AcDbEntity
  8
0
100
AcDbLine
 10
1257.0
 20
1272.3
 30
0.0
 11
1260.315509401529
 21
1272.3
 31
0.0
  0
LINE
  5
5CF
330
1F
100
AcDbEntity
  8
0
100
AcDbLine
 10
1264.322256248691
 20
1272.289458626762
 30
0.0
 11
1268.302160298102
 21
1272.289458626762
 31
0.0
  0
LINE
  5
5D7
330
1F
100
AcDbEntity
  8
0
100
AcDbLine
 10
1272.299740888439
 20
1272.299623413038
 30
0.0
 11
1276.279644937851
 21
1272.299623413038
 31
0.0
  0
LINE
  5
5E0
330
1F
100
AcDbEntity
  8
0
100
AcDbLine
 10
1280.299258368394
 20
1272.30141755905
 30
0.0
 11
1284.279162417806
 21
1272.30141755905
 31
0.0
  0
LINE
  5
5E1
330
1F
100
AcDbEntity
  8
0
100
AcDbLine
 10
1288.276743008143
 20
1272.311582345326
 30
0.0
 11
1292.256647057555
 21
1272.311582345326
 31
0.0
  0
LINE
  5
612
330
1F
100
AcDbEntity
  8
0
100
AcDbLine
 10
1296.301797476672
 20
1272.300704187001
 30
0.0
 11
1300.281701526083
 21
1272.300704187001
 31
0.0
  0
LINE
  5
613
330
1F
100
AcDbEntity
  8
0
100
AcDbLine
 10
1304.27928211642
 20
1272.310868973277
 30
0.0
 11
1308.259186165832
 21
1272.310868973277
 31
0.0
  0
LINE
  5
614
330
1F
100
AcDbEntity
  8
0
100
AcDbLine
 10
1312.278799596375
 20
1272.312663119289
 30
0.0
 11
1316.258703645787
 21
1272.312663119289
 31
0.0
  0
LINE
  5
615
330
1F
100
AcDbEntity
  8
0
100
AcDbLine
 10
1320.256284236124
 20
1272.322827905565
 30
0.0
 11
1324.236188285536
 21
1272.322827905565
 31
0.0
  0
LINE
  5
624
330
1F
100
AcDbEntity
  8
0
100
AcDbLine
 10
1328.298500913925
 20
1272.304369021089
 30
0.0
 11
1332.278404963337
 21
1272.304369021089
 31
0.0
  0
LINE
  5
625
330
1F
100
AcDbEntity
  8
0
100
AcDbLine
 10
1336.275985553674
 20
1272.314533807365
 30
0.0
 11
1340.255889603086
 21
1272.314533807365
 31
0.0
  0
LINE
  5
626
330
1F
100
AcDbEntity
  8
0
100
AcDbLine
 10
1344.275503033629
 20
1272.316327953376
 30
0.0
 11
1348.255407083041
 21
1272.316327953376
 31
0.0
  0
LINE
  5
627
330
1F
100
AcDbEntity
  8
0
100
AcDbLine
 10
1352.252987673378
 20
1272.326492739653
 30
0.0
 11
1356.232891722789
 21
1272.326492739653
 31
0.0
  0
LINE
  5
628
330
1F
100
AcDbEntity
  8
0
100
AcDbLine
 10
1360.278042141906
 20
1272.315614581328
 30
0.0
 11
1364.257946191318
 21
1272.315614581328
 31
0.0
  0
LINE
  5
629
330
1F
100
AcDbEntity
  8
0
100
AcDbLine
 10
1368.255526781655
 20
1272.325779367604
 30
0.0
 11
1372.235430831067
 21
1272.325779367604
 31
0.0
  0
LINE
  5
62A
330
1F
100
AcDbEntity
  8
0
100
AcDbLine
 10
1376.25504426161
 20
1272.327573513615
 30
0.0
 11
1380.234948311022
 21
1272.327573513615
 31
0.0
  0
LINE
  5
62B
330
1F
100
AcDbEntity
  8
0
100
AcDbLine
 10
1384.232528901359
 20
1272.337738299891
 30
0.0
 11
1387.005267368266
 21
1272.337738299891
 31
0.0
  0
LINE
  5
62C
330
1F
100
AcDbEntity
  8
0
100
AcDbLine
 10
1387.005267368266
 20
1271.002610571086
 30
0.0
 11
1387.005267368266
 21
1272.337738299891
 31
0.0
  0
LINE
  5
641
330
1F
100
AcDbEntity
  8
0
100
AcDbLine
 10
1264.69989250038
 20
1248.699304311306
 30
0.0
 11
1268.679796549792
 21
1248.699304311306
 31
0.0
  0
LINE
  5
642
330
1F
100
AcDbEntity
  8
0
100
AcDbLine
 10
1272.699409980335
 20
1248.701098457317
 30
0.0
 11
1276.679314029746
 21
1248.701098457317
 31
0.0
  0
LINE
  5
643
330
1F
100
AcDbEntity
  8
0
100
AcDbLine
 10
1280.676894620083
 20
1248.711263243593
 30
0.0
 11
1284.656798669495
 21
1248.711263243593
 31
0.0
  0
LINE
  5
644
330
1F
100
AcDbEntity
  8
0
100
AcDbLine
 10
1288.701949088612
 20
1248.700385085269
 30
0.0
 11
1292.681853138024
 21
1248.700385085269
 31
0.0
  0
LINE
  5
645
330
1F
100
AcDbEntity
  8
0
100
AcDbLine
 10
1296.679433728361
 20
1248.710549871545
 30
0.0
 11
1300.659337777772
 21
1248.710549871545
 31
0.0
  0
LINE
  5
646
330
1F
100
AcDbEntity
  8
0
100
AcDbLine
 10
1304.678951208316
 20
1248.712344017556
 30
0.0
 11
1308.658855257728
 21
1248.712344017556
 31
0.0
  0
LINE
  5
647
330
1F
100
AcDbEntity
  8
0
100
AcDbLine
 10
1312.656435848065
 20
1248.722508803832
 30
0.0
 11
1316.636339897476
 21
1248.722508803832
 31
0.0
  0
LINE
  5
648
330
1F
100
AcDbEntity
  8
0
100
AcDbLine
 10
1320.698652525866
 20
1248.704049919356
 30
0.0
 11
1324.678556575278
 21
1248.704049919356
 31
0.0
  0
LINE
  5
649
330
1F
100
AcDbEntity
  8
0
100
AcDbLine
 10
1328.676137165615
 20
1248.714214705632
 30
0.0
 11
1332.656041215027
 21
1248.714214705632
 31
0.0
  0
LINE
  5
64A
330
1F
100
AcDbEntity
  8
0
100
AcDbLine
 10
1336.67565464557
 20
1248.716008851644
 30
0.0
 11
1340.655558694981
 21
1248.716008851644
 31
0.0
  0
LINE
  5
64B
330
1F
100
AcDbEntity
  8
0
100
AcDbLine
 10
1344.653139285318
 20
1248.72617363792
 30
0.0
 11
1348.63304333473
 21
1248.72617363792
 31
0.0
  0
LINE
  5
64C
330
1F
100
AcDbEntity
  8
0
100
AcDbLine
 10
1352.678193753847
 20
1248.715295479595
 30
0.0
 11
1356.658097803259
 21
1248.715295479595
 31
0.0
  0
LINE
  5
64D
330
1F
100
AcDbEntity
  8
0
100
AcDbLine
 10
1360.655678393596
 20
1248.725460265871
 30
0.0
 11
1364.635582443007
 21
1248.725460265871
 31
0.0
  0
LINE
  5
64E
330
1F
100
AcDbEntity
  8
0
100
AcDbLine
 10
1368.655195873551
 20
1248.727254411883
 30
0.0
 11
1372.635099922962
 21
1248.727254411883
 31
0.0
  0
LINE
  5
656
330
1F
100
AcDbEntity
  8
0
100
AcDbLine
 10
1376.7032911323
 20
1248.701367885386
 30
0.0
 11
1380.683195181712
 21
1248.701367885386
 31
0.0
  0
LINE
  5
65D
330
1F
100
AcDbEntity
  8
0
100
AcDbLine
 10
1257.012856331485
 20
1264.966429818441
 30
0.0
 11
1257.012856331485
 21
1261.049043654822
 31
0.0
  0
LINE
  5
66D
330
1F
100
AcDbEntity
  8
0
100
AcDbLine
 10
1257.014033400628
 20
1256.925710348534
 30
0.0
 11
1257.014033400628
 21
1253.008324184916
 31
0.0
  0
LINE
  5
66E
330
1F
100
AcDbEntity
  8
0
100
AcDbLine
 10
1260.710355215849
 20
1248.681082816576
 30
0.0
 11
1257.018423733233
 21
1248.681082816576
 31
0.0
  0
LINE
  5
66F
330
1F
100
AcDbEntity
  8
0
100
AcDbLine
 10
1257.018423733233
 20
1248.681082816576
 30
0.0
 11
1257.018423733233
 21
1249.049945152787
 31
0.0
  0
LINE
  5
670
330
1F
100
AcDbEntity
  8
0
100
AcDbLine
 10
1386.993652266443
 20
1266.956511270402
 30
0.0
 11
1386.993652266443
 21
1263.010945380011
 31
0.0
  0
LINE
  5
671
330
1F
100
AcDbEntity
  8
0
100
AcDbLine
 10
1386.994396390613
 20
1259.000018689189
 30
0.0
 11
1386.994396390613
 21
1255.001133596085
 31
0.0
  0
LINE
  5
672
330
1F
100
AcDbEntity
  8
0
100
AcDbLine
 10
1386.997278180583
 20
1250.990063006181
 30
0.0
 11
1386.997278180583
 21
1248.706467227124
 31
0.0
  0
LINE
  5
673
330
1F
100
AcDbEntity
  8
0
100
AcDbLine
 10
1386.997278180583
 20
1248.706467227124
 30
0.0
 11
1384.711639908456
 21
1248.706467227124
 31
0.0
  0
LINE
  5
72E
330
1F
100
AcDbEntity
  8
0
100
AcDbLine
 10
1409.0
 20
1317.000000884436
 30
0.0
 11
1409.0
 21
1342.0
 31
0.0
  0
LINE
  5
72F
330
1F
100
AcDbEntity
  8
0
100
AcDbLine
 10
1409.0
 20
1342.0
 30
0.0
 11
1415.0
 21
1342.0
 31
0.0
  0
LINE
  5
730
330
1F
100
AcDbEntity
  8
0
100
AcDbLine
 10
1415.0
 20
1342.0
 30
0.0
 11
1415.0
 21
1362.0
 31
0.0
  0
LINE
  5
731
330
1F
100
AcDbEntity
  8
0
100
AcDbLine
 10
1415.0
 20
1362.0
 30
0.0
 11
1409.0
 21
1362.0
 31
0.0
  0
LINE
  5
732
330
1F
100
AcDbEntity
  8
0
100
AcDbLine
 10
1409.0
 20
1362.0
 30
0.0
 11
1409.0
 21
1387.0
 31
0.0
  0
LINE
  5
733
330
1F
100
AcDbEntity
  8
0
100
AcDbLine
 10
1409.0
 20
1387.0
 30
0.0
 11
1415.0
 21
1387.0
 31
0.0
  0
LINE
  5
734
330
1F
100
AcDbEntity
  8
0
100
AcDbLine
 10
1415.0
 20
1387.0
 30
0.0
 11
1415.0
 21
1413.0
 31
0.0
  0
LINE
  5
73B
330
1F
100
AcDbEntity
  8
0
100
AcDbLine
 10
1397.0
 20
1279.0
 30
0.0
 11
1397.0
 21
1264.0
 31
0.0
  0
LINE
  5
73C
330
1F
100
AcDbEntity
  8
0
100
AcDbLine
 10
1397.0
 20
1264.0
 30
0.0
 11
1401.0
 21
1264.0
 31
0.0
  0
LINE
  5
73D
330
1F
100
AcDbEntity
  8
0
100
AcDbLine
 10
1401.0
 20
1264.0
 30
0.0
 11
1401.0
 21
1257.0
 31
0.0
  0
LINE
  5
73E
330
1F
100
AcDbEntity
  8
0
100
AcDbLine
 10
1401.0
 20
1257.0
 30
0.0
 11
1397.0
 21
1257.0
 31
0.0
  0
LINE
  5
740
330
1F
100
AcDbEntity
  8
0
100
AcDbLine
 10
1397.0
 20
1257.0
 30
0.0
 11
1397.0
 21
1242.0
 31
0.0
  0
LINE
  5
741
330
1F
100
AcDbEntity
  8
0
100
AcDbLine
 10
1409.0
 20
1317.000000884436
 30
0.0
 11
1415.0
 21
1317.000000884436
 31
0.0
  0
LINE
  5
742
330
1F
100
AcDbEntity
  8
0
100
AcDbLine
 10
1415.0
 20
1317.000000884436
 30
0.0
 11
1415.0
 21
1291.000000884436
 31
0.0
  0
LINE
  5
744
330
1F
100
AcDbEntity
  8
0
100
AcDbLine
 10
1415.0
 20
1291.000000884436
 30
0.0
 11
1452.0
 21
1291.000000884436
 31
0.0
  0
LINE
  5
745
330
1F
100
AcDbEntity
  8
0
100
AcDbLine
 10
1452.0
 20
1291.000000884436
 30
0.0
 11
1452.0
 21
1317.000000884436
 31
0.0
  0
LINE
  5
748
330
1F
100
AcDbEntity
  8
0
100
AcDbLine
 10
1430.0
 20
1294.0
 30
0.0
 11
1430.0
 21
1297.0
 31
0.0
  0
LINE
  5
749
330
1F
100
AcDbEntity
  8
0
100
AcDbLine
 10
1430.0
 20
1297.0
 30
0.0
 11
1437.0
 21
1297.0
 31
0.0
  0
LINE
  5
74A
330
1F
100
AcDbEntity
  8
0
100
AcDbLine
 10
1437.0
 20
1297.0
 30
0.0
 11
1437.0
 21
1294.0
 31
0.0
  0
LINE
  5
74C
330
1F
100
AcDbEntity
  8
0
100
AcDbLine
 10
1430.0
 20
1294.0
 30
0.0
 11
1437.0
 21
1294.0
 31
0.0
  0
LINE
  5
74D
330
1F
100
AcDbEntity
  8
0
100
AcDbLine
 10
1452.0
 20
1317.000000884436
 30
0.0
 11
1456.0
 21
1317.000000884436
 31
0.0
  0
LINE
  5
74E
330
1F
100
AcDbEntity
  8
0
100
AcDbLine
 10
1456.0
 20
1317.000000884436
 30
0.0
 11
1456.0
 21
1342.000000884436
 31
0.0
  0
LINE
  5
74F
330
1F
100
AcDbEntity
  8
0
100
AcDbLine
 10
1456.0
 20
1342.000000884436
 30
0.0
 11
1452.0
 21
1342.000000884436
 31
0.0
  0
LINE
  5
750
330
1F
100
AcDbEntity
  8
0
100
AcDbLine
 10
1452.0
 20
1342.000000884436
 30
0.0
 11
1452.0
 21
1362.000000884436
 31
0.0
  0
LINE
  5
751
330
1F
100
AcDbEntity
  8
0
100
AcDbLine
 10
1452.0
 20
1362.000000884436
 30
0.0
 11
1456.0
 21
1362.000000884436
 31
0.0
  0
LINE
  5
752
330
1F
100
AcDbEntity
  8
0
100
AcDbLine
 10
1456.0
 20
1362.000000884436
 30
0.0
 11
1456.0
 21
1387.000000884436
 31
0.0
  0
LINE
  5
753
330
1F
100
AcDbEntity
  8
0
100
AcDbLine
 10
1456.0
 20
1387.000000884436
 30
0.0
 11
1452.0
 21
1387.000000884436
 31
0.0
  0
LINE
  5
754
330
1F
100
AcDbEntity
  8
0
100
AcDbLine
 10
1452.0
 20
1387.000000884436
 30
0.0
 11
1452.0
 21
1413.000000884436
 31
0.0
  0
LINE
  5
755
330
1F
100
AcDbEntity
  8
0
100
AcDbLine
 10
1452.0
 20
1413.000000884436
 30
0.0
 11
1415.0
 21
1413.0
 31
0.0
  0
LINE
  5
76D
330
1F
100
AcDbEntity
  8
0
100
AcDbLine
 10
1430.0
 20
1408.0
 30
0.0
 11
1430.0
 21
1405.0
 31
0.0
  0
LINE
  5
76E
330
1F
100
AcDbEntity
  8
0
100
AcDbLine
 10
1430.0
 20
1405.0
 30
0.0
 11
1437.0
 21
1405.0
 31
0.0
  0
LINE
  5
76F
330
1F
100
AcDbEntity
  8
0
100
AcDbLine
 10
1437.0
 20
1405.0
 30
0.0
 11
1437.0
 21
1408.0
 31
0.0
  0
LINE
  5
770
330
1F
100
AcDbEntity
  8
0
100
AcDbLine
 10
1437.0
 20
1408.0
 30
0.0
 11
1430.0
 21
1408.0
 31
0.0
  0
LINE
  5
794
330
1F
100
AcDbEntity
  8
0
100
AcDbLine
 10
1188.000000997511
 20
1316.999999883373
 30
0.0
 11
1188.000000997511
 21
1341.999998998937
 31
0.0
  0
LINE
  5
795
330
1F
100
AcDbEntity
  8
0
100
AcDbLine
 10
1188.000000997511
 20
1341.999998998937
 30
0.0
 11
1192.000000997511
 21
1341.999998998937
 31
0.0
  0
LINE
  5
796
330
1F
100
AcDbEntity
  8
0
100
AcDbLine
 10
1192.000000997511
 20
1341.999998998937
 30
0.0
 11
1192.000000997511
 21
1361.999998998937
 31
0.0
  0
LINE
  5
797
330
1F
100
AcDbEntity
  8
0
100
AcDbLine
 10
1192.000000997511
 20
1361.999998998937
 30
0.0
 11
1188.000000997511
 21
1361.999998998937
 31
0.0
  0
LINE
  5
798
330
1F
100
AcDbEntity
  8
0
100
AcDbLine
 10
1188.000000997511
 20
1361.999998998937
 30
0.0
 11
1188.000000997511
 21
1386.999998998937
 31
0.0
  0
LINE
  5
799
330
1F
100
AcDbEntity
  8
0
100
AcDbLine
 10
1188.000000997511
 20
1386.999998998937
 30
0.0
 11
1192.000000997511
 21
1386.999998998937
 31
0.0
  0
LINE
  5
79A
330
1F
100
AcDbEntity
  8
0
100
AcDbLine
 10
1192.000000997511
 20
1386.999998998937
 30
0.0
 11
1192.000000997511
 21
1412.999998998937
 31
0.0
  0
LINE
  5
79B
330
1F
100
AcDbEntity
  8
0
100
AcDbLine
 10
1188.000000997511
 20
1316.999999883373
 30
0.0
 11
1192.000000997511
 21
1316.999999883373
 31
0.0
  0
LINE
  5
79C
330
1F
100
AcDbEntity
  8
0
100
AcDbLine
 10
1192.000000997511
 20
1316.999999883373
 30
0.0
 11
1192.000000997511
 21
1290.999999883372
 31
0.0
  0
LINE
  5
79D
330
1F
100
AcDbEntity
  8
0
100
AcDbLine
 10
1192.000000997511
 20
1290.999999883372
 30
0.0
 11
1229.000000997511
 21
1290.999999883372
 31
0.0
  0
LINE
  5
79E
330
1F
100
AcDbEntity
  8
0
100
AcDbLine
 10
1229.000000997511
 20
1290.999999883372
 30
0.0
 11
1229.000000997511
 21
1316.999999883373
 31
0.0
  0
LINE
  5
79F
330
1F
100
AcDbEntity
  8
0
100
AcDbLine
 10
1207.000000997511
 20
1293.999998998937
 30
0.0
 11
1207.000000997511
 21
1296.999998998936
 31
0.0
  0
LINE
  5
7A0
330
1F
100
AcDbEntity
  8
0
100
AcDbLine
 10
1207.000000997511
 20
1296.999998998936
 30
0.0
 11
1214.000000997511
 21
1296.999998998936
 31
0.0
  0
LINE
  5
7A1
330
1F
100
AcDbEntity
  8
0
100
AcDbLine
 10
1214.000000997511
 20
1296.999998998936
 30
0.0
 11
1214.000000997511
 21
1293.999998998937
 31
0.0
  0
LINE
  5
7A2
330
1F
100
AcDbEntity
  8
0
100
AcDbLine
 10
1207.000000997511
 20
1293.999998998937
 30
0.0
 11
1214.000000997511
 21
1293.999998998937
 31
0.0
  0
LINE
  5
7A3
330
1F
100
AcDbEntity
  8
0
100
AcDbLine
 10
1229.000000997511
 20
1316.999999883373
 30
0.0
 11
1235.000000997511
 21
1316.999999883373
 31
0.0
  0
LINE
  5
7A4
330
1F
100
AcDbEntity
  8
0
100
AcDbLine
 10
1235.000000997511
 20
1316.999999883373
 30
0.0
 11
1235.000000997511
 21
1341.999999883373
 31
0.0
  0
LINE
  5
7A5
330
1F
100
AcDbEntity
  8
0
100
AcDbLine
 10
1235.000000997511
 20
1341.999999883373
 30
0.0
 11
1229.000000997511
 21
1341.999999883373
 31
0.0
  0
LINE
  5
7A6
330
1F
100
AcDbEntity
  8
0
100
AcDbLine
 10
1229.000000997511
 20
1341.999999883373
 30
0.0
 11
1229.000000997511
 21
1361.999999883373
 31
0.0
  0
LINE
  5
7A7
330
1F
100
AcDbEntity
  8
0
100
AcDbLine
 10
1229.000000997511
 20
1361.999999883373
 30
0.0
 11
1235.000000997511
 21
1361.999999883373
 31
0.0
  0
LINE
  5
7A8
330
1F
100
AcDbEntity
  8
0
100
AcDbLine
 10
1235.000000997511
 20
1361.999999883373
 30
0.0
 11
1235.000000997511
 21
1386.999999883373
 31
0.0
  0
LINE
  5
7A9
330
1F
100
AcDbEntity
  8
0
100
AcDbLine
 10
1235.000000997511
 20
1386.999999883373
 30
0.0
 11
1229.000000997511
 21
1386.999999883373
 31
0.0
  0
LINE
  5
7AA
330
1F
100
AcDbEntity
  8
0
100
AcDbLine
 10
1229.000000997511
 20
1386.999999883373
 30
0.0
 11
1229.000000997511
 21
1412.999999883373
 31
0.0
  0
LINE
  5
7AB
330
1F
100
AcDbEntity
  8
0
100
AcDbLine
 10
1229.000000997511
 20
1412.999999883373
 30
0.0
 11
1192.000000997511
 21
1412.999998998937
 31
0.0
  0
LINE
  5
7AC
330
1F
100
AcDbEntity
  8
0
100
AcDbLine
 10
1207.000000997511
 20
1407.999998998937
 30
0.0
 11
1207.000000997511
 21
1404.999998998937
 31
0.0
  0
LINE
  5
7AD
330
1F
100
AcDbEntity
  8
0
100
AcDbLine
 10
1207.000000997511
 20
1404.999998998937
 30
0.0
 11
1214.000000997511
 21
1404.999998998937
 31
0.0
  0
LINE
  5
7AE
330
1F
100
AcDbEntity
  8
0
100
AcDbLine
 10
1214.000000997511
 20
1404.999998998937
 30
0.0
 11
1214.000000997511
 21
1407.999998998937
 31
0.0
  0
LINE
  5
7AF
330
1F
100
AcDbEntity
  8
0
100
AcDbLine
 10
1214.000000997511
 20
1407.999998998937
 30
0.0
 11
1207.000000997511
 21
1407.999998998937
 31
0.0
  0
LINE
  5
7B5
330
1F
100
AcDbEntity
  8
0
100
AcDbLine
 10
1247.0
 20
1279.0
 30
0.0
 11
1247.0
 21
1264.0
 31
0.0
  0
LINE
  5
7B6
330
1F
100
AcDbEntity
  8
0
100
AcDbLine
 10
1247.0
 20
1264.0
 30
0.0
 11
1243.0
 21
1264.0
 31
0.0
  0
LINE
  5
7B7
330
1F
100
AcDbEntity
  8
0
100
AcDbLine
 10
1243.0
 20
1264.0
 30
0.0
 11
1243.0
 21
1257.0
 31
0.0
  0
LINE
  5
7B8
330
1F
100
AcDbEntity
  8
0
100
AcDbLine
 10
1243.0
 20
1257.0
 30
0.0
 11
1247.0
 21
1257.0
 31
0.0
  0
LINE
  5
7B9
330
1F
100
AcDbEntity
  8
0
100
AcDbLine
 10
1247.0
 20
1257.0
 30
0.0
 11
1247.0
 21
1242.0
 31
0.0
  0
LINE
  5
813
330
1F
100
AcDbEntity
  8
0
100
AcDbLine
 10
1296.000001196883
 20
1465.999999384496
 30
0.0
 11
1266.000001196883
 21
1465.999999384496
 31
0.0
  0
LINE
  5
814
330
1F
100
AcDbEntity
  8
0
100
AcDbLine
 10
1307.000001196883
 20
1461.999999384496
 30
0.0
 11
1307.000001196883
 21
1465.999999384496
 31
0.0
  0
LINE
  5
815
330
1F
100
AcDbEntity
  8
0
100
AcDbLine
 10
1337.000001196883
 20
1465.999999384496
 30
0.0
 11
1337.000001196883
 21
1461.999999384496
 31
0.0
  0
LINE
  5
816
330
1F
100
AcDbEntity
  8
0
100
AcDbLine
 10
1348.000001196883
 20
1461.999999384496
 30
0.0
 11
1348.000001196883
 21
1465.999999384496
 31
0.0
  0
LINE
  5
817
330
1F
100
AcDbEntity
  8
0
100
AcDbLine
 10
1348.000001196883
 20
1465.999999384496
 30
0.0
 11
1378.000001196883
 21
1465.999999384496
 31
0.0
  0
LINE
  5
818
330
1F
100
AcDbEntity
  8
0
100
AcDbLine
 10
1378.000001196883
 20
1465.999999384496
 30
0.0
 11
1378.000001196883
 21
1461.999999384496
 31
0.0
  0
LINE
  5
819
330
1F
100
AcDbEntity
  8
0
100
AcDbLine
 10
1378.000001196883
 20
1461.999999384496
 30
0.0
 11
1397.000001196883
 21
1461.999999384496
 31
0.0
  0
LINE
  5
81A
330
1F
100
AcDbEntity
  8
0
100
AcDbLine
 10
1247.000001196883
 20
1461.999999384496
 30
0.0
 11
1266.000001196883
 21
1461.999999384496
 31
0.0
  0
LINE
  5
81B
330
1F
100
AcDbEntity
  8
0
100
AcDbLine
 10
1266.000001196883
 20
1465.999999384496
 30
0.0
 11
1266.000001196883
 21
1461.999999384496
 31
0.0
  0
LINE
  5
81C
330
1F
100
AcDbEntity
  8
0
100
AcDbLine
 10
1296.000001196883
 20
1465.999999384496
 30
0.0
 11
1296.000001196883
 21
1461.999999384496
 31
0.0
  0
LINE
  5
81D
330
1F
100
AcDbEntity
  8
0
100
AcDbLine
 10
1307.000001196883
 20
1465.999999384496
 30
0.0
 11
1337.000001196883
 21
1465.999999384496
 31
0.0
  0
LINE
  5
81E
330
1F
100
AcDbEntity
  8
0
100
AcDbLine
 10
1296.000001196883
 20
1461.999999384496
 30
0.0
 11
1307.000001196883
 21
1461.999999384496
 31
0.0
  0
LINE
  5
81F
330
1F
100
AcDbEntity
  8
0
100
AcDbLine
 10
1337.000001196883
 20
1461.999999384496
 30
0.0
 11
1348.000001196883
 21
1461.999999384496
 31
0.0
  0
LINE
  5
820
330
1F
100
AcDbEntity
  8
0
100
AcDbLine
 10
1247.000001196883
 20
1424.999999384496
 30
0.0
 11
1266.000001196883
 21
1424.999999384496
 31
0.0
  0
LINE
  5
821
330
1F
100
AcDbEntity
  8
0
100
AcDbLine
 10
1266.000001196883
 20
1424.999999384496
 30
0.0
 11
1266.000001196883
 21
1418.999999384496
 31
0.0
  0
LINE
  5
822
330
1F
100
AcDbEntity
  8
0
100
AcDbLine
 10
1266.000001196883
 20
1418.999999384496
 30
0.0
 11
1296.000001196883
 21
1418.999999384496
 31
0.0
  0
LINE
  5
823
330
1F
100
AcDbEntity
  8
0
100
AcDbLine
 10
1296.000001196883
 20
1418.999999384496
 30
0.0
 11
1296.000001196883
 21
1424.999999384496
 31
0.0
  0
LINE
  5
824
330
1F
100
AcDbEntity
  8
0
100
AcDbLine
 10
1296.000001196883
 20
1424.999999384496
 30
0.0
 11
1307.000001196883
 21
1424.999999384496
 31
0.0
  0
LINE
  5
825
330
1F
100
AcDbEntity
  8
0
100
AcDbLine
 10
1307.000001196883
 20
1424.999999384496
 30
0.0
 11
1307.000001196883
 21
1418.999999384496
 31
0.0
  0
LINE
  5
826
330
1F
100
AcDbEntity
  8
0
100
AcDbLine
 10
1307.000001196883
 20
1418.999999384496
 30
0.0
 11
1337.000001196883
 21
1418.999999384496
 31
0.0
  0
LINE
  5
827
330
1F
100
AcDbEntity
  8
0
100
AcDbLine
 10
1337.000001196883
 20
1418.999999384496
 30
0.0
 11
1337.000001196883
 21
1424.999999384496
 31
0.0
  0
LINE
  5
828
330
1F
100
AcDbEntity
  8
0
100
AcDbLine
 10
1337.000001196883
 20
1424.999999384496
 30
0.0
 11
1348.000001196883
 21
1424.999999384496
 31
0.0
  0
LINE
  5
829
330
1F
100
AcDbEntity
  8
0
100
AcDbLine
 10
1348.000001196883
 20
1424.999999384496
 30
0.0
 11
1348.000001196883
 21
1418.999999384496
 31
0.0
  0
LINE
  5
82A
330
1F
100
AcDbEntity
  8
0
100
AcDbLine
 10
1348.000001196883
 20
1418.999999384496
 30
0.0
 11
1378.000001196883
 21
1418.999999384496
 31
0.0
  0
LINE
  5
82B
330
1F
100
AcDbEntity
  8
0
100
AcDbLine
 10
1378.000001196883
 20
1418.999999384496
 30
0.0
 11
1378.000001196883
 21
1424.999999384496
 31
0.0
  0
LINE
  5
82C
330
1F
100
AcDbEntity
  8
0
100
AcDbLine
 10
1378.000001196883
 20
1424.999999384496
 30
0.0
 11
1397.000001196883
 21
1424.999999384496
 31
0.0
  0
LINE
  5
858
330
1F
100
AcDbEntity
  8
0
100
AcDbLine
 10
1397.000001196883
 20
1461.999999384496
 30
0.0
 11
1397.000001196883
 21
1446.999999384496
 31
0.0
  0
LINE
  5
859
330
1F
100
AcDbEntity
  8
0
100
AcDbLine
 10
1397.000001196883
 20
1446.999999384496
 30
0.0
 11
1401.000001196883
 21
1446.999999384496
 31
0.0
  0
LINE
  5
85A
330
1F
100
AcDbEntity
  8
0
100
AcDbLine
 10
1401.000001196883
 20
1446.999999384496
 30
0.0
 11
1401.000001196883
 21
1439.999999384496
 31
0.0
  0
LINE
  5
85B
330
1F
100
AcDbEntity
  8
0
100
AcDbLine
 10
1401.000001196883
 20
1439.999999384496
 30
0.0
 11
1397.000001196883
 21
1439.999999384496
 31
0.0
  0
LINE
  5
85C
330
1F
100
AcDbEntity
  8
0
100
AcDbLine
 10
1397.000001196883
 20
1439.999999384496
 30
0.0
 11
1397.000001196883
 21
1424.999999384496
 31
0.0
  0
LINE
  5
85D
330
1F
100
AcDbEntity
  8
0
100
AcDbLine
 10
1247.000001196883
 20
1461.999999384496
 30
0.0
 11
1247.000001196883
 21
1446.999999384496
 31
0.0
  0
LINE
  5
85E
330
1F
100
AcDbEntity
  8
0
100
AcDbLine
 10
1247.000001196883
 20
1446.999999384496
 30
0.0
 11
1243.000001196883
 21
1446.999999384496
 31
0.0
  0
LINE
  5
85F
330
1F
100
AcDbEntity
  8
0
100
AcDbLine
 10
1243.000001196883
 20
1446.999999384496
 30
0.0
 11
1243.000001196883
 21
1439.999999384496
 31
0.0
  0
LINE
  5
860
330
1F
100
AcDbEntity
  8
0
100
AcDbLine
 10
1243.000001196883
 20
1439.999999384496
 30
0.0
 11
1247.000001196883
 21
1439.999999384496
 31
0.0
  0
LINE
  5
861
330
1F
100
AcDbEntity
  8
0
100
AcDbLine
 10
1247.000001196883
 20
1439.999999384496
 30
0.0
 11
1247.000001196883
 21
1424.999999384496
 31
0.0
  0
LINE
  5
9A0
330
1F
100
AcDbEntity
  8
0
100
AcDbLine
 10
1200.150029648177
 20
1386.999304737991
 30
0.0
 11
1203.325023836519
 21
1386.999304737991
 31
0.0
  0
LINE
  5
9A8
330
1F
100
AcDbEntity
  8
0
100
AcDbLine
 10
1206.499999942431
 20
1386.99999990988
 30
0.0
 11
1209.674994130774
 21
1386.99999990988
 31
0.0
  0
LINE
  5
9B1
330
1F
100
AcDbEntity
  8
0
100
AcDbLine
 10
1212.850000275045
 20
1386.99998619166
 30
0.0
 11
1216.024994463388
 21
1386.99998619166
 31
0.0
  0
LINE
  5
9B2
330
1F
100
AcDbEntity
  8
0
100
AcDbLine
 10
1219.1999705693
 20
1387.000681363548
 30
0.0
 11
1222.374964757642
 21
1387.000681363548
 31
0.0
  0
LINE
  5
9BD
330
1F
100
AcDbEntity
  8
0
100
AcDbLine
 10
2400.300029647973
 20
2703.999304620527
 30
0.0
 11
2403.475023836315
 21
2703.999304620527
 31
0.0
  0
LINE
  5
9BE
330
1F
100
AcDbEntity
  8
0
100
AcDbLine
 10
2406.649999942227
 20
2703.999999792416
 30
0.0
 11
2409.82499413057
 21
2703.999999792416
 31
0.0
  0
LINE
  5
9BF
330
1F
100
AcDbEntity
  8
0
100
AcDbLine
 10
2413.00000027484
 20
2703.999986074196
 30
0.0
 11
2416.174994463183
 21
2703.999986074196
 31
0.0
  0
LINE
  5
9C0
330
1F
100
AcDbEntity
  8
0
100
AcDbLine
 10
2419.349970569096
 20
2704.000681246084
 30
0.0
 11
2422.524964757438
 21
2704.000681246084
 31
0.0
  0
LINE
  5
9D9
330
1F
100
AcDbEntity
  8
0
100
AcDbLine
 10
1200.14999999921
 20
1316.999999879506
 30
0.0
 11
1203.324994187553
 21
1316.999999879506
 31
0.0
  0
LINE
  5
9DA
330
1F
100
AcDbEntity
  8
0
100
AcDbLine
 10
1206.499970293465
 20
1317.000695051394
 30
0.0
 11
1209.674964481808
 21
1317.000695051394
 31
0.0
  0
LINE
  5
9DB
330
1F
100
AcDbEntity
  8
0
100
AcDbLine
 10
1212.849970626079
 20
1317.000681333175
 30
0.0
 11
1216.024964814421
 21
1317.000681333175
 31
0.0
  0
LINE
  5
9DC
330
1F
100
AcDbEntity
  8
0
100
AcDbLine
 10
1219.199940920333
 20
1317.001376505063
 30
0.0
 11
1222.374935108676
 21
1317.001376505063
 31
0.0
  0
LINE
  5
AA3
330
1F
100
AcDbEntity
  8
0
100
AcDbLine
 10
1381.0
 20
1433.699999384496
 30
0.0
 11
1381.0
 21
1445.199999384496
 31
0.0
  0
LINE
  5
AA5
330
1F
100
AcDbEntity
  8
0
100
AcDbLine
 10
1381.0
 20
1445.199999384496
 30
0.0
 11
1371.0
 21
1445.199999384496
 31
0.0
  0
LINE
  5
AA6
330
1F
100
AcDbEntity
  8
0
100
AcDbLine
 10
1371.0
 20
1445.199999384496
 30
0.0
 11
1371.0
 21
1433.699999384496
 31
0.0
  0
LINE
  5
AAF
330
1F
100
AcDbEntity
  8
0
100
AcDbLine
 10
1369.0
 20
1433.699999384496
 30
0.0
 11
1369.0
 21
1440.199999384496
 31
0.0
  0
LINE
  5
AB3
330
1F
100
AcDbEntity
  8
0
100
AcDbLine
 10
1351.0
 20
1440.199999384496
 30
0.0
 11
1369.0
 21
1440.199999384496
 31
0.0
  0
LINE
  5
AB6
330
1F
100
AcDbEntity
  8
0
100
AcDbLine
 10
1345.0
 20
1433.699999384496
 30
0.0
 11
1345.0
 21
1450.699999384496
 31
0.0
  0
LINE
  5
AB7
330
1F
100
AcDbEntity
  8
0
100
AcDbLine
 10
1345.0
 20
1450.699999384496
 30
0.0
 11
1328.0
 21
1450.699999384496
 31
0.0
  0
LINE
  5
AB8
330
1F
100
AcDbEntity
  8
0
100
AcDbLine
 10
1328.0
 20
1450.699999384496
 30
0.0
 11
1328.0
 21
1433.699999384496
 31
0.0
  0
LINE
  5
AC0
330
1F
100
AcDbEntity
  8
0
100
AcDbLine
 10
1322.0
 20
1433.699999384496
 30
0.0
 11
1322.0
 21
1450.699999384496
 31
0.0
  0
LINE
  5
AC1
330
1F
100
AcDbEntity
  8
0
100
AcDbLine
 10
1322.0
 20
1450.699999384496
 30
0.0
 11
1305.0
 21
1450.699999384496
 31
0.0
  0
LINE
  5
AC4
330
1F
100
AcDbEntity
  8
0
100
AcDbLine
 10
1313.0
 20
1431.999999384496
 30
0.0
 11
1313.0
 21
1428.499999384496
 31
0.0
  0
LINE
  5
AC8
330
1F
100
AcDbEntity
  8
0
100
AcDbLine
 10
1313.0
 20
1428.499999384496
 30
0.0
 11
1281.0
 21
1428.499999384496
 31
0.0
  0
LINE
  5
AC9
330
1F
100
AcDbEntity
  8
0
100
AcDbLine
 10
1281.0
 20
1428.499999384496
 30
0.0
 11
1281.0
 21
1431.999999384496
 31
0.0
  0
LINE
  5
AD1
330
1F
100
AcDbEntity
  8
0
100
AcDbLine
 10
1305.0
 20
1450.699999384496
 30
0.0
 11
1305.0
 21
1433.699999384496
 31
0.0
  0
LINE
  5
AD4
330
1F
100
AcDbEntity
  8
0
100
AcDbLine
 10
1301.0
 20
1433.699999384496
 30
0.0
 11
1301.0
 21
1448.199999384496
 31
0.0
  0
LINE
  5
AD6
330
1F
100
AcDbEntity
  8
0
100
AcDbLine
 10
1284.0
 20
1448.199999384496
 30
0.0
 11
1284.0
 21
1433.699999384496
 31
0.0
  0
LINE
  5
B2B
330
1F
100
AcDbEntity
  8
0
100
AcDbLine
 10
1282.0
 20
1433.699999384496
 30
0.0
 11
1282.0
 21
1448.199999384496
 31
0.0
  0
LINE
  5
B2C
330
1F
100
AcDbEntity
  8
0
100
AcDbLine
 10
1282.0
 20
1448.199999384496
 30
0.0
 11
1264.0
 21
1448.199999384496
 31
0.0
  0
LINE
  5
B2E
330
1F
100
AcDbEntity
  8
0
100
AcDbLine
 10
1264.0
 20
1448.199999384496
 30
0.0
 11
1264.0
 21
1433.699956104582
 31
0.0
  0
CIRCLE
  5
B3F
330
1F
100
AcDbEntity
  8
0
100
AcDbCircle
 10
1385.5
 20
1576.2
 30
0.0
 40
1.6
  0
LINE
  5
B43
330
1F
100
AcDbEntity
  8
0
100
AcDbLine
 10
1241.0
 20
1595.0
 30
0.0
 11
1403.0
 21
1595.0
 31
0.0
  0
LINE
  5
B44
330
1F
100
AcDbEntity
  8
0
100
AcDbLine
 10
1403.0
 20
1595.0
 30
0.0
 11
1403.0
 21
1473.0
 31
0.0
  0
LINE
  5
B45
330
1F
100
AcDbEntity
  8
0
100
AcDbLine
 10
1241.0
 20
1595.0
 30
0.0
 11
1241.0
 21
1473.0
 31
0.0
  0
LINE
  5
B46
330
1F
100
AcDbEntity
  8
0
100
AcDbLine
 10
1400.0
 20
1569.0
 30
0.0
 11
1397.0
 21
1569.0
 31
0.0
  0
LINE
  5
B47
330
1F
100
AcDbEntity
  8
0
100
AcDbLine
 10
1397.0
 20
1569.0
 30
0.0
 11
1397.0
 21
1544.0
 31
0.0
  0
LINE
  5
B48
330
1F
100
AcDbEntity
  8
0
100
AcDbLine
 10
1397.0
 20
1544.0
 30
0.0
 11
1400.0
 21
1544.0
 31
0.0
  0
LINE
  5
B49
330
1F
100
AcDbEntity
  8
0
100
AcDbLine
 10
1400.0
 20
1544.0
 30
0.0
 11
1400.0
 21
1569.0
 31
0.0
  0
LINE
  5
B4A
330
1F
100
AcDbEntity
  8
0
100
AcDbLine
 10
1244.0
 20
1569.0
 30
0.0
 11
1247.0
 21
1569.0
 31
0.0
  0
LINE
  5
B4B
330
1F
100
AcDbEntity
  8
0
100
AcDbLine
 10
1247.0
 20
1569.0
 30
0.0
 11
1247.0
 21
1544.0
 31
0.0
  0
LINE
  5
B4C
330
1F
100
AcDbEntity
  8
0
100
AcDbLine
 10
1247.0
 20
1544.0
 30
0.0
 11
1244.0
 21
1544.0
 31
0.0
  0
LINE
  5
B4D
330
1F
100
AcDbEntity
  8
0
100
AcDbLine
 10
1244.0
 20
1544.0
 30
0.0
 11
1244.0
 21
1569.0
 31
0.0
  0
LINE
  5
B4E
330
1F
100
AcDbEntity
  8
0
100
AcDbLine
 10
1400.0
 20
1499.0
 30
0.0
 11
1397.0
 21
1499.0
 31
0.0
  0
LINE
  5
B4F
330
1F
100
AcDbEntity
  8
0
100
AcDbLine
 10
1397.0
 20
1499.0
 30
0.0
 11
1397.0
 21
1524.0
 31
0.0
  0
LINE
  5
B50
330
1F
100
AcDbEntity
  8
0
100
AcDbLine
 10
1397.0
 20
1524.0
 30
0.0
 11
1400.0
 21
1524.0
 31
0.0
  0
LINE
  5
B51
330
1F
100
AcDbEntity
  8
0
100
AcDbLine
 10
1400.0
 20
1524.0
 30
0.0
 11
1400.0
 21
1499.0
 31
0.0
  0
LINE
  5
B52
330
1F
100
AcDbEntity
  8
0
100
AcDbLine
 10
1244.0
 20
1524.0
 30
0.0
 11
1244.0
 21
1499.0
 31
0.0
  0
LINE
  5
B53
330
1F
100
AcDbEntity
  8
0
100
AcDbLine
 10
1244.0
 20
1499.0
 30
0.0
 11
1247.0
 21
1499.0
 31
0.0
  0
LINE
  5
B54
330
1F
100
AcDbEntity
  8
0
100
AcDbLine
 10
1247.0
 20
1499.0
 30
0.0
 11
1247.0
 21
1524.0
 31
0.0
  0
LINE
  5
B55
330
1F
100
AcDbEntity
  8
0
100
AcDbLine
 10
1247.0
 20
1524.0
 30
0.0
 11
1244.0
 21
1524.0
 31
0.0
  0
LINE
  5
B56
330
1F
100
AcDbEntity
  8
0
100
AcDbLine
 10
1266.0
 20
1476.0
 30
0.0
 11
1296.0
 21
1476.0
 31
0.0
  0
LINE
  5
B57
330
1F
100
AcDbEntity
  8
0
100
AcDbLine
 10
1296.0
 20
1476.0
 30
0.0
 11
1296.0
 21
1479.0
 31
0.0
  0
LINE
  5
B58
330
1F
100
AcDbEntity
  8
0
100
AcDbLine
 10
1296.0
 20
1479.0
 30
0.0
 11
1266.0
 21
1479.0
 31
0.0
  0
LINE
  5
B59
330
1F
100
AcDbEntity
  8
0
100
AcDbLine
 10
1266.0
 20
1479.0
 30
0.0
 11
1266.0
 21
1476.0
 31
0.0
  0
LINE
  5
B5A
330
1F
100
AcDbEntity
  8
0
100
AcDbLine
 10
1307.0
 20
1479.0
 30
0.0
 11
1337.0
 21
1479.0
 31
0.0
  0
LINE
  5
B5B
330
1F
100
AcDbEntity
  8
0
100
AcDbLine
 10
1337.0
 20
1479.0
 30
0.0
 11
1337.0
 21
1476.0
 31
0.0
  0
LINE
  5
B5C
330
1F
100
AcDbEntity
  8
0
100
AcDbLine
 10
1337.0
 20
1476.0
 30
0.0
 11
1307.0
 21
1476.0
 31
0.0
  0
LINE
  5
B5D
330
1F
100
AcDbEntity
  8
0
100
AcDbLine
 10
1307.0
 20
1476.0
 30
0.0
 11
1307.0
 21
1479.0
 31
0.0
  0
LINE
  5
B5E
330
1F
100
AcDbEntity
  8
0
100
AcDbLine
 10
1348.0
 20
1479.0
 30
0.0
 11
1348.0
 21
1476.0
 31
0.0
  0
LINE
  5
B5F
330
1F
100
AcDbEntity
  8
0
100
AcDbLine
 10
1348.0
 20
1476.0
 30
0.0
 11
1378.0
 21
1476.0
 31
0.0
  0
LINE
  5
B60
330
1F
100
AcDbEntity
  8
0
100
AcDbLine
 10
1378.0
 20
1476.0
 30
0.0
 11
1378.0
 21
1479.0
 31
0.0
  0
LINE
  5
B61
330
1F
100
AcDbEntity
  8
0
100
AcDbLine
 10
1378.0
 20
1479.0
 30
0.0
 11
1348.0
 21
1479.0
 31
0.0
  0
LINE
  5
B62
330
1F
100
AcDbEntity
  8
0
100
AcDbLine
 10
1266.0
 20
1587.0
 30
0.0
 11
1296.0
 21
1587.0
 31
0.0
  0
LINE
  5
B63
330
1F
100
AcDbEntity
  8
0
100
AcDbLine
 10
1296.0
 20
1587.0
 30
0.0
 11
1296.0
 21
1590.0
 31
0.0
  0
LINE
  5
B64
330
1F
100
AcDbEntity
  8
0
100
AcDbLine
 10
1296.0
 20
1590.0
 30
0.0
 11
1266.0
 21
1590.0
 31
0.0
  0
LINE
  5
B65
330
1F
100
AcDbEntity
  8
0
100
AcDbLine
 10
1266.0
 20
1590.0
 30
0.0
 11
1266.0
 21
1587.0
 31
0.0
  0
LINE
  5
B66
330
1F
100
AcDbEntity
  8
0
100
AcDbLine
 10
1307.0
 20
1587.0
 30
0.0
 11
1337.0
 21
1587.0
 31
0.0
  0
LINE
  5
B67
330
1F
100
AcDbEntity
  8
0
100
AcDbLine
 10
1337.0
 20
1587.0
 30
0.0
 11
1337.0
 21
1590.0
 31
0.0
  0
LINE
  5
B68
330
1F
100
AcDbEntity
  8
0
100
AcDbLine
 10
1337.0
 20
1590.0
 30
0.0
 11
1307.0
 21
1590.0
 31
0.0
  0
LINE
  5
B69
330
1F
100
AcDbEntity
  8
0
100
AcDbLine
 10
1307.0
 20
1590.0
 30
0.0
 11
1307.0
 21
1587.0
 31
0.0
  0
LINE
  5
B6A
330
1F
100
AcDbEntity
  8
0
100
AcDbLine
 10
1348.0
 20
1587.0
 30
0.0
 11
1378.0
 21
1587.0
 31
0.0
  0
LINE
  5
B6B
330
1F
100
AcDbEntity
  8
0
100
AcDbLine
 10
1378.0
 20
1587.0
 30
0.0
 11
1378.0
 21
1590.0
 31
0.0
  0
LINE
  5
B6C
330
1F
100
AcDbEntity
  8
0
100
AcDbLine
 10
1378.0
 20
1590.0
 30
0.0
 11
1348.0
 21
1590.0
 31
0.0
  0
LINE
  5
B6D
330
1F
100
AcDbEntity
  8
0
100
AcDbLine
 10
1348.0
 20
1590.0
 30
0.0
 11
1348.0
 21
1587.0
 31
0.0
  0
LINE
  5
C55
330
1F
100
AcDbEntity
  8
0
100
AcDbLine
 10
1241.0
 20
1473.0
 30
0.0
 11
1403.0
 21
1473.0
 31
0.0
  0
CIRCLE
  5
CAA
330
1F
100
AcDbEntity
  8
0
100
AcDbCircle
 10
1355.306283693465
 20
1456.612774528659
 30
0.0
 40
3.399999999999999
  0
LINE
  5
CAE
330
1F
100
AcDbEntity
  8
0
100
AcDbLine
 10
1422.400000268975
 20
1386.999990811055
 30
0.0
 11
1425.574994457317
 21
1386.999990811055
 31
0.0
  0
LINE
  5
CAF
330
1F
100
AcDbEntity
  8
0
100
AcDbLine
 10
1428.74997056323
 20
1387.000685982943
 30
0.0
 11
1431.924964751572
 21
1387.000685982943
 31
0.0
  0
LINE
  5
CB0
330
1F
100
AcDbEntity
  8
0
100
AcDbLine
 10
1435.099970895843
 20
1387.000672264724
 30
0.0
 11
1438.274965084186
 21
1387.000672264724
 31
0.0
  0
LINE
  5
CB1
330
1F
100
AcDbEntity
  8
0
100
AcDbLine
 10
1441.449941190098
 20
1387.001367436612
 30
0.0
 11
1444.624935378441
 21
1387.001367436612
 31
0.0
  0
LINE
  5
CB2
330
1F
100
AcDbEntity
  8
0
100
AcDbLine
 10
1422.399970620008
 20
1317.000685952569
 30
0.0
 11
1425.574964808351
 21
1317.000685952569
 31
0.0
  0
LINE
  5
CB3
330
1F
100
AcDbEntity
  8
0
100
AcDbLine
 10
1428.749940914263
 20
1317.001381124458
 30
0.0
 11
1431.924935102606
 21
1317.001381124458
 31
0.0
  0
LINE
  5
CB4
330
1F
100
AcDbEntity
  8
0
100
AcDbLine
 10
1435.099941246877
 20
1317.001367406238
 30
0.0
 11
1438.274935435219
 21
1317.001367406238
 31
0.0
  0
LINE
  5
CB5
330
1F
100
AcDbEntity
  8
0
100
AcDbLine
 10
1441.449911541132
 20
1317.002062578127
 30
0.0
 11
1444.624905729474
 21
1317.002062578127
 31
0.0
  0
CIRCLE
  5
CBC
330
1F
100
AcDbEntity
  8
0
100
AcDbCircle
 10
1292.541542794553
 20
1456.56241813109
 30
0.0
 40
3.399999999999999
  0
LINE
  5
D61
330
1F
100
AcDbEntity
  8
0
100
AcDbLine
 10
1384.0
 20
1572.0
 30
0.0
 11
1394.0
 21
1572.0
 31
0.0
  0
LINE
  5
D62
330
1F
100
AcDbEntity
  8
0
100
AcDbLine
 10
1384.0
 20
1572.0
 30
0.0
 11
1384.0
 21
1554.0
 31
0.0
  0
LINE
  5
D63
330
1F
100
AcDbEntity
  8
0
100
AcDbLine
 10
1384.0
 20
1554.0
 30
0.0
 11
1387.0
 21
1554.0
 31
0.0
  0
LINE
  5
D6B
330
1F
100
AcDbEntity
  8
0
100
AcDbLine
 10
1387.0
 20
1554.0
 30
0.0
 11
1387.0
 21
1534.0
 31
0.0
  0
LINE
  5
D6C
330
1F
100
AcDbEntity
  8
0
100
AcDbLine
 10
1387.0
 20
1534.0
 30
0.0
 11
1394.0
 21
1534.0
 31
0.0
  0
LINE
  5
D73
330
1F
100
AcDbEntity
  8
0
100
AcDbLine
 10
1343.0
 20
1582.0
 30
0.0
 11
1343.0
 21
1564.0
 31
0.0
  0
LINE
  5
D74
330
1F
100
AcDbEntity
  8
0
100
AcDbLine
 10
1343.0
 20
1564.0
 30
0.0
 11
1352.0
 21
1564.0
 31
0.0
  0
LINE
  5
D75
330
1F
100
AcDbEntity
  8
0
100
AcDbLine
 10
1343.0
 20
1582.0
 30
0.0
 11
1352.0
 21
1582.0
 31
0.0
  0
LINE
  5
D76
330
1F
100
AcDbEntity
  8
0
100
AcDbLine
 10
1352.0
 20
1582.0
 30
0.0
 11
1352.0
 21
1564.0
 31
0.0
  0
LINE
  5
D80
330
1F
100
AcDbEntity
  8
0
100
AcDbLine
 10
1364.0
 20
1559.0
 30
0.0
 11
1343.0
 21
1559.0
 31
0.0
  0
LINE
  5
D82
330
1F
100
AcDbEntity
  8
0
100
AcDbLine
 10
1343.0
 20
1559.0
 30
0.0
 11
1343.0
 21
1557.5
 31
0.0
  0
LINE
  5
D83
330
1F
100
AcDbEntity
  8
0
100
AcDbLine
 10
1343.0
 20
1557.5
 30
0.0
 11
1364.0
 21
1557.5
 31
0.0
  0
LINE
  5
D84
330
1F
100
AcDbEntity
  8
0
100
AcDbLine
 10
1364.0
 20
1557.5
 30
0.0
 11
1364.0
 21
1559.0
 31
0.0
  0
LINE
  5
D8E
330
1F
100
AcDbEntity
  8
0
100
AcDbLine
 10
1324.0
 20
1571.0
 30
0.0
 11
1307.0
 21
1571.0
 31
0.0
  0
LINE
  5
D8F
330
1F
100
AcDbEntity
  8
0
100
AcDbLine
 10
1307.0
 20
1571.0
 30
0.0
 11
1307.0
 21
1562.0
 31
0.0
  0
LINE
  5
D91
330
1F
100
AcDbEntity
  8
0
100
AcDbLine
 10
1307.0
 20
1562.0
 30
0.0
 11
1324.0
 21
1562.0
 31
0.0
  0
LINE
  5
D92
330
1F
100
AcDbEntity
  8
0
100
AcDbLine
 10
1324.0
 20
1562.0
 30
0.0
 11
1324.0
 21
1571.0
 31
0.0
  0
LINE
  5
D94
330
1F
100
AcDbEntity
  8
0
100
AcDbLine
 10
1324.0
 20
1557.0
 30
0.0
 11
1307.0
 21
1557.0
 31
0.0
  0
LINE
  5
D95
330
1F
100
AcDbEntity
  8
0
100
AcDbLine
 10
1307.0
 20
1557.0
 30
0.0
 11
1307.0
 21
1548.0
 31
0.0
  0
LINE
  5
D96
330
1F
100
AcDbEntity
  8
0
100
AcDbLine
 10
1307.0
 20
1548.0
 30
0.0
 11
1324.0
 21
1548.0
 31
0.0
  0
LINE
  5
D97
330
1F
100
AcDbEntity
  8
0
100
AcDbLine
 10
1324.0
 20
1548.0
 30
0.0
 11
1324.0
 21
1557.0
 31
0.0
  0
CIRCLE
  5
DC4
330
1F
100
AcDbEntity
  8
0
100
AcDbCircle
 10
1364.0
 20
1543.0
 30
0.0
 40
1.6
  0
CIRCLE
  5
DCB
330
1F
100
AcDbEntity
  8
0
100
AcDbCircle
 10
1364.0
 20
1493.0
 30
0.0
 40
1.6
  0
CIRCLE
  5
DCC
330
1F
100
AcDbEntity
  8
0
100
AcDbCircle
 10
1314.0
 20
1493.0
 30
0.0
 40
1.6
  0
CIRCLE
  5
DCD
330
1F
100
AcDbEntity
  8
0
100
AcDbCircle
 10
1314.0
 20
1543.0
 30
0.0
 40
1.6
  0
CIRCLE
  5
EB3
330
1F
100
AcDbEntity
  8
0
100
AcDbCircle
 10
1298.079129082176
 20
1554.3
 30
0.0
 40
1.6
  0
CIRCLE
  5
EB4
330
1F
100
AcDbEntity
  8
0
100
AcDbCircle
 10
1374.079129082176
 20
1554.3
 30
0.0
 40
1.6
  0
CIRCLE
  5
EB5
330
1F
100
AcDbEntity
  8
0
100
AcDbCircle
 10
1298.079129082176
 20
1492.3
 30
0.0
 40
1.6
  0
CIRCLE
  5
EB6
330
1F
100
AcDbEntity
  8
0
100
AcDbCircle
 10
1374.079129082176
 20
1492.3
 30
0.0
 40
1.6
  0
LINE
  5
EC0
330
1F
100
AcDbEntity
  8
0
100
AcDbLine
 10
1381.0
 20
1433.699999384496
 30
0.0
 11
1371.0
 21
1433.699999384496
 31
0.0
  0
LINE
  5
EC3
330
1F
100
AcDbEntity
  8
0
100
AcDbLine
 10
1284.0
 20
1433.699999384496
 30
0.0
 11
1301.0
 21
1433.699999384496
 31
0.0
  0
LINE
  5
ECC
330
1F
100
AcDbEntity
  8
0
100
AcDbLine
 10
1281.0
 20
1431.999999384496
 30
0.0
 11
1313.0
 21
1431.999999384496
 31
0.0
  0
LINE
  5
F21
330
1F
100
AcDbEntity
  8
0
100
AcDbLine
 10
1350.0
 20
1437.699999384496
 30
0.0
 11
1346.0
 21
1437.699999384496
 31
0.0
  0
LINE
  5
F22
330
1F
100
AcDbEntity
  8
0
100
AcDbLine
 10
1346.0
 20
1437.699999384496
 30
0.0
 11
1346.0
 21
1433.699999384496
 31
0.0
  0
LINE
  5
F23
330
1F
100
AcDbEntity
  8
0
100
AcDbLine
 10
1350.0
 20
1437.699999384496
 30
0.0
 11
1350.0
 21
1433.699999384496
 31
0.0
  0
LINE
  5
F24
330
1F
100
AcDbEntity
  8
0
100
AcDbLine
 10
1351.0
 20
1440.199999384496
 30
0.0
 11
1351.0
 21
1433.699999384496
 31
0.0
  0
LINE
  5
F26
330
1F
100
AcDbEntity
  8
0
100
AcDbLine
 10
1327.0
 20
1437.699999384496
 30
0.0
 11
1327.0
 21
1433.699999384496
 31
0.0
  0
LINE
  5
F27
330
1F
100
AcDbEntity
  8
0
100
AcDbLine
 10
1327.0
 20
1437.699999384496
 30
0.0
 11
1323.0
 21
1437.699999384496
 31
0.0
  0
LINE
  5
F28
330
1F
100
AcDbEntity
  8
0
100
AcDbLine
 10
1323.0
 20
1437.699999384496
 30
0.0
 11
1323.0
 21
1433.699999384496
 31
0.0
  0
LINE
  5
F29
330
1F
100
AcDbEntity
  8
0
100
AcDbLine
 10
1305.0
 20
1433.699999384496
 30
0.0
 11
1322.0
 21
1433.699999384496
 31
0.0
  0
LINE
  5
F2A
330
1F
100
AcDbEntity
  8
0
100
AcDbLine
 10
1323.0
 20
1433.699999384496
 30
0.0
 11
1327.0
 21
1433.699999384496
 31
0.0
  0
LINE
  5
F2C
330
1F
100
AcDbEntity
  8
0
100
AcDbLine
 10
1328.0
 20
1433.699999384496
 30
0.0
 11
1345.0
 21
1433.699999384496
 31
0.0
  0
LINE
  5
F2D
330
1F
100
AcDbEntity
  8
0
100
AcDbLine
 10
1346.0
 20
1433.699999384496
 30
0.0
 11
1350.0
 21
1433.699999384496
 31
0.0
  0
LINE
  5
F2E
330
1F
100
AcDbEntity
  8
0
100
AcDbLine
 10
1351.0
 20
1433.699999384496
 30
0.0
 11
1369.0
 21
1433.699999384496
 31
0.0
  0
LINE
  5
101E
330
1F
100
AcDbEntity
  8
0
100
AcDbLine
 10
1200.150029648177
 20
1386.999304737991
 30
0.0
 11
1200.150029648177
 21
1316.999999879506
 31
0.0
  0
LINE
  5
1026
330
1F
100
AcDbEntity
  8
0
100
AcDbLine
 10
1203.324991632289
 20
1386.999305506321
 30
0.0
 11
1203.324991632289
 21
1317.000000647836
 31
0.0
  0
LINE
  5
102F
330
1F
100
AcDbEntity
  8
0
100
AcDbLine
 10
1206.499967738201
 20
1387.00000067821
 30
0.0
 11
1206.499967738201
 21
1317.000695819724
 31
0.0
  0
LINE
  5
1030
330
1F
100
AcDbEntity
  8
0
100
AcDbLine
 10
1209.674929722313
 20
1387.00000144654
 30
0.0
 11
1209.674929722313
 21
1317.000696588055
 31
0.0
  0
LINE
  5
103B
330
1F
100
AcDbEntity
  8
0
100
AcDbLine
 10
1212.849968070815
 20
1386.99998695999
 30
0.0
 11
1212.849968070815
 21
1317.000682101505
 31
0.0
  0
LINE
  5
103C
330
1F
100
AcDbEntity
  8
0
100
AcDbLine
 10
1216.024930054927
 20
1386.99998772832
 30
0.0
 11
1216.024930054927
 21
1317.000682869835
 31
0.0
  0
LINE
  5
103D
330
1F
100
AcDbEntity
  8
0
100
AcDbLine
 10
1219.199906160839
 20
1387.000682900209
 30
0.0
 11
1219.199906160839
 21
1317.001378041724
 31
0.0
  0
LINE
  5
103E
330
1F
100
AcDbEntity
  8
0
100
AcDbLine
 10
1222.374868144951
 20
1387.000683668539
 30
0.0
 11
1222.374868144951
 21
1317.001378810054
 31
0.0
  0
LINE
  5
104D
330
1F
100
AcDbEntity
  8
0
100
AcDbLine
 10
1422.399968064745
 20
1386.999991579385
 30
0.0
 11
1422.399968064745
 21
1317.0006867209
 31
0.0
  0
LINE
  5
104E
330
1F
100
AcDbEntity
  8
0
100
AcDbLine
 10
1425.574930048857
 20
1386.999992347715
 30
0.0
 11
1425.574930048857
 21
1317.00068748923
 31
0.0
  0
LINE
  5
104F
330
1F
100
AcDbEntity
  8
0
100
AcDbLine
 10
1428.749906154769
 20
1387.000687519604
 30
0.0
 11
1428.749906154769
 21
1317.001382661118
 31
0.0
  0
LINE
  5
1050
330
1F
100
AcDbEntity
  8
0
100
AcDbLine
 10
1431.924868138881
 20
1387.000688287934
 30
0.0
 11
1431.924868138881
 21
1317.001383429448
 31
0.0
  0
LINE
  5
1051
330
1F
100
AcDbEntity
  8
0
100
AcDbLine
 10
1435.099906487383
 20
1387.000673801384
 30
0.0
 11
1435.099906487383
 21
1317.001368942898
 31
0.0
  0
LINE
  5
1052
330
1F
100
AcDbEntity
  8
0
100
AcDbLine
 10
1438.274868471495
 20
1387.000674569714
 30
0.0
 11
1438.274868471495
 21
1317.001369711229
 31
0.0
  0
LINE
  5
1053
330
1F
100
AcDbEntity
  8
0
100
AcDbLine
 10
1441.449844577407
 20
1387.001369741603
 30
0.0
 11
1441.449844577407
 21
1317.002064883117
 31
0.0
  0
LINE
  5
1054
330
1F
100
AcDbEntity
  8
0
100
AcDbLine
 10
1444.624806561519
 20
1387.001370509933
 30
0.0
 11
1444.624806561519
 21
1317.002065651448
 31
0.0
  0
LINE
  5
1057
330
1F
100
AcDbEntity
  8
0
100
AcDbLine
 10
1319.0
 20
1538.0
 30
0.0
 11
1323.0
 21
1538.0
 31
0.0
  0
LINE
  5
1058
330
1F
100
AcDbEntity
  8
0
100
AcDbLine
 10
1319.0
 20
1538.0
 30
0.0
 11
1319.0
 21
1534.0
 31
0.0
  0
LINE
  5
1059
330
1F
100
AcDbEntity
  8
0
100
AcDbLine
 10
1319.0
 20
1534.0
 30
0.0
 11
1323.0
 21
1538.0
 31
0.0
  0
LINE
  5
105C
330
1F
100
AcDbEntity
  8
0
100
AcDbLine
 10
1319.0
 20
1530.0
 30
0.0
 11
1327.0
 21
1538.0
 31
0.0
  0
LINE
  5
105D
330
1F
100
AcDbEntity
  8
0
100
AcDbLine
 10
1327.0
 20
1538.0
 30
0.0
 11
1331.0
 21
1538.0
 31
0.0
  0
LINE
  5
105F
330
1F
100
AcDbEntity
  8
0
100
AcDbLine
 10
1335.0
 20
1538.0
 30
0.0
 11
1339.0
 21
1538.0
 31
0.0
  0
LINE
  5
1061
330
1F
100
AcDbEntity
  8
0
100
AcDbLine
 10
1343.0
 20
1538.0
 30
0.0
 11
1347.0
 21
1538.0
 31
0.0
  0
LINE
  5
1063
330
1F
100
AcDbEntity
  8
0
100
AcDbLine
 10
1351.0
 20
1538.0
 30
0.0
 11
1355.0
 21
1538.0
 31
0.0
  0
LINE
  5
1065
330
1F
100
AcDbEntity
  8
0
100
AcDbLine
 10
1319.0
 20
1530.0
 30
0.0
 11
1319.0
 21
1526.0
 31
0.0
  0
LINE
  5
1067
330
1F
100
AcDbEntity
  8
0
100
AcDbLine
 10
1319.0
 20
1522.0
 30
0.0
 11
1319.0
 21
1518.0
 31
0.0
  0
LINE
  5
1069
330
1F
100
AcDbEntity
  8
0
100
AcDbLine
 10
1319.0
 20
1514.0
 30
0.0
 11
1319.0
 21
1510.0
 31
0.0
  0
LINE
  5
106B
330
1F
100
AcDbEntity
  8
0
100
AcDbLine
 10
1319.0
 20
1506.0
 30
0.0
 11
1319.0
 21
1502.0
 31
0.0
  0
LINE
  5
106D
330
1F
100
AcDbEntity
  8
0
100
AcDbLine
 10
1319.0
 20
1526.0
 30
0.0
 11
1331.0
 21
1538.0
 31
0.0
  0
LINE
  5
106E
330
1F
100
AcDbEntity
  8
0
100
AcDbLine
 10
1319.0
 20
1522.0
 30
0.0
 11
1335.0
 21
1538.0
 31
0.0
  0
LINE
  5
106F
330
1F
100
AcDbEntity
  8
0
100
AcDbLine
 10
1319.0
 20
1518.0
 30
0.0
 11
1339.0
 21
1538.0
 31
0.0
  0
LINE
  5
1070
330
1F
100
AcDbEntity
  8
0
100
AcDbLine
 10
1319.0
 20
1514.0
 30
0.0
 11
1343.0
 21
1538.0
 31
0.0
  0
LINE
  5
1071
330
1F
100
AcDbEntity
  8
0
100
AcDbLine
 10
1319.0
 20
1510.0
 30
0.0
 11
1347.0
 21
1538.0
 31
0.0
  0
LINE
  5
1072
330
1F
100
AcDbEntity
  8
0
100
AcDbLine
 10
1351.0
 20
1538.0
 30
0.0
 11
1319.0
 21
1506.0
 31
0.0
  0
LINE
  5
1073
330
1F
100
AcDbEntity
  8
0
100
AcDbLine
 10
1319.0
 20
1502.0
 30
0.0
 11
1355.0
 21
1538.0
 31
0.0
  0
LINE
  5
1079
330
1F
100
AcDbEntity
  8
0
100
AcDbLine
 10
1319.0
 20
1498.0
 30
0.0
 11
1359.0
 21
1538.0
 31
0.0
  0
LINE
  5
107A
330
1F
100
AcDbEntity
  8
0
100
AcDbLine
 10
1359.0
 20
1538.0
 30
0.0
 11
1359.0
 21
1534.0
 31
0.0
  0
LINE
  5
107C
330
1F
100
AcDbEntity
  8
0
100
AcDbLine
 10
1359.0
 20
1530.0
 30
0.0
 11
1359.0
 21
1526.0
 31
0.0
  0
LINE
  5
107E
330
1F
100
AcDbEntity
  8
0
100
AcDbLine
 10
1359.0
 20
1522.0
 30
0.0
 11
1359.0
 21
1518.0
 31
0.0
  0
LINE
  5
1080
330
1F
100
AcDbEntity
  8
0
100
AcDbLine
 10
1359.0
 20
1514.0
 30
0.0
 11
1359.0
 21
1510.0
 31
0.0
  0
LINE
  5
1082
330
1F
100
AcDbEntity
  8
0
100
AcDbLine
 10
1359.0
 20
1506.0
 30
0.0
 11
1359.0
 21
1502.0
 31
0.0
  0
LINE
  5
1085
330
1F
100
AcDbEntity
  8
0
100
AcDbLine
 10
1355.0
 20
1498.0
 30
0.0
 11
1351.0
 21
1498.0
 31
0.0
  0
LINE
  5
1087
330
1F
100
AcDbEntity
  8
0
100
AcDbLine
 10
1347.0
 20
1498.0
 30
0.0
 11
1343.0
 21
1498.0
 31
0.0
  0
LINE
  5
1089
330
1F
100
AcDbEntity
  8
0
100
AcDbLine
 10
1339.0
 20
1498.0
 30
0.0
 11
1335.0
 21
1498.0
 31
0.0
  0
LINE
  5
108B
330
1F
100
AcDbEntity
  8
0
100
AcDbLine
 10
1331.0
 20
1498.0
 30
0.0
 11
1327.0
 21
1498.0
 31
0.0
  0
LINE
  5
108D
330
1F
100
AcDbEntity
  8
0
100
AcDbLine
 10
1323.0
 20
1498.0
 30
0.0
 11
1319.0
 21
1498.0
 31
0.0
  0
LINE
  5
108E
330
1F
100
AcDbEntity
  8
0
100
AcDbLine
 10
1323.0
 20
1498.0
 30
0.0
 11
1359.0
 21
1534.0
 31
0.0
  0
LINE
  5
108F
330
1F
100
AcDbEntity
  8
0
100
AcDbLine
 10
1327.0
 20
1498.0
 30
0.0
 11
1359.0
 21
1530.0
 31
0.0
  0
LINE
  5
1090
330
1F
100
AcDbEntity
  8
0
100
AcDbLine
 10
1331.0
 20
1498.0
 30
0.0
 11
1359.0
 21
1526.0
 31
0.0
  0
LINE
  5
1091
330
1F
100
AcDbEntity
  8
0
100
AcDbLine
 10
1335.0
 20
1498.0
 30
0.0
 11
1359.0
 21
1522.0
 31
0.0
  0
LINE
  5
1092
330
1F
100
AcDbEntity
  8
0
100
AcDbLine
 10
1339.0
 20
1498.0
 30
0.0
 11
1359.0
 21
1518.0
 31
0.0
  0
LINE
  5
1093
330
1F
100
AcDbEntity
  8
0
100
AcDbLine
 10
1343.0
 20
1498.0
 30
0.0
 11
1359.0
 21
1514.0
 31
0.0
  0
LINE
  5
1094
330
1F
100
AcDbEntity
  8
0
100
AcDbLine
 10
1347.0
 20
1498.0
 30
0.0
 11
1359.0
 21
1510.0
 31
0.0
  0
LINE
  5
1095
330
1F
100
AcDbEntity
  8
0
100
AcDbLine
 10
1351.0
 20
1498.0
 30
0.0
 11
1359.0
 21
1506.0
 31
0.0
  0
LINE
  5
1096
330
1F
100
AcDbEntity
  8
0
100
AcDbLine
 10
1355.0
 20
1498.0
 30
0.0
 11
1359.0
 21
1502.0
 31
0.0
  0
LINE
  5
109C
330
1F
100
AcDbEntity
  8
0
100
AcDbLine
 10
1257.023105248022
 20
1269.023716507394
 30
0.0
 11
1260.315509401529
 21
1272.3
 31
0.0
  0
LINE
  5
109D
330
1F
100
AcDbEntity
  8
0
100
AcDbLine
 10
1257.012856331485
 20
1264.966429818441
 30
0.0
 11
1264.322256248691
 21
1272.289458626762
 31
0.0
  0
LINE
  5
109E
330
1F
100
AcDbEntity
  8
0
100
AcDbLine
 10
1257.012856331485
 20
1261.049043654822
 30
0.0
 11
1268.302160298102
 21
1272.289458626762
 31
0.0
  0
LINE
  5
109F
330
1F
100
AcDbEntity
  8
0
100
AcDbLine
 10
1257.014033400628
 20
1256.925710348534
 30
0.0
 11
1272.299740888439
 21
1272.299623413038
 31
0.0
  0
LINE
  5
10A0
330
1F
100
AcDbEntity
  8
0
100
AcDbLine
 10
1257.014033400628
 20
1253.008324184916
 30
0.0
 11
1276.279644937851
 21
1272.299623413038
 31
0.0
  0
LINE
  5
10A1
330
1F
100
AcDbEntity
  8
0
100
AcDbLine
 10
1257.018423733233
 20
1249.049945152787
 30
0.0
 11
1280.299258368394
 21
1272.30141755905
 31
0.0
  0
LINE
  5
10A7
330
1F
100
AcDbEntity
  8
0
100
AcDbLine
 10
1260.710355215849
 20
1248.681082816576
 30
0.0
 11
1284.279162417806
 21
1272.30141755905
 31
0.0
  0
LINE
  5
10A8
330
1F
100
AcDbEntity
  8
0
100
AcDbLine
 10
1264.69989250038
 20
1248.699304311306
 30
0.0
 11
1288.276743008143
 21
1272.311582345326
 31
0.0
  0
LINE
  5
10A9
330
1F
100
AcDbEntity
  8
0
100
AcDbLine
 10
1268.679796549792
 20
1248.699304311306
 30
0.0
 11
1292.256647057555
 21
1272.311582345326
 31
0.0
  0
LINE
  5
10AA
330
1F
100
AcDbEntity
  8
0
100
AcDbLine
 10
1272.699409980335
 20
1248.701098457317
 30
0.0
 11
1296.301797476672
 21
1272.300704187001
 31
0.0
  0
LINE
  5
10AB
330
1F
100
AcDbEntity
  8
0
100
AcDbLine
 10
1276.679314029746
 20
1248.701098457317
 30
0.0
 11
1300.281701526083
 21
1272.300704187001
 31
0.0
  0
LINE
  5
10AC
330
1F
100
AcDbEntity
  8
0
100
AcDbLine
 10
1280.676894620083
 20
1248.711263243593
 30
0.0
 11
1304.27928211642
 21
1272.310868973277
 31
0.0
  0
LINE
  5
10AD
330
1F
100
AcDbEntity
  8
0
100
AcDbLine
 10
1284.656798669495
 20
1248.711263243593
 30
0.0
 11
1308.259186165832
 21
1272.310868973277
 31
0.0
  0
LINE
  5
10AE
330
1F
100
AcDbEntity
  8
0
100
AcDbLine
 10
1288.701949088612
 20
1248.700385085269
 30
0.0
 11
1312.278799596375
 21
1272.312663119289
 31
0.0
  0
LINE
  5
10AF
330
1F
100
AcDbEntity
  8
0
100
AcDbLine
 10
1292.681853138024
 20
1248.700385085269
 30
0.0
 11
1316.258703645787
 21
1272.312663119289
 31
0.0
  0
LINE
  5
10B0
330
1F
100
AcDbEntity
  8
0
100
AcDbLine
 10
1296.679433728361
 20
1248.710549871545
 30
0.0
 11
1320.256284236124
 21
1272.322827905565
 31
0.0
  0
LINE
  5
10B1
330
1F
100
AcDbEntity
  8
0
100
AcDbLine
 10
1300.659337777772
 20
1248.710549871545
 30
0.0
 11
1324.236188285536
 21
1272.322827905565
 31
0.0
  0
LINE
  5
10B2
330
1F
100
AcDbEntity
  8
0
100
AcDbLine
 10
1304.678951208316
 20
1248.712344017556
 30
0.0
 11
1328.298500913925
 21
1272.304369021089
 31
0.0
  0
LINE
  5
10B3
330
1F
100
AcDbEntity
  8
0
100
AcDbLine
 10
1308.658855257728
 20
1248.712344017556
 30
0.0
 11
1332.278404963337
 21
1272.304369021089
 31
0.0
  0
LINE
  5
10B4
330
1F
100
AcDbEntity
  8
0
100
AcDbLine
 10
1312.656435848065
 20
1248.722508803832
 30
0.0
 11
1336.275985553674
 21
1272.314533807365
 31
0.0
  0
LINE
  5
10B5
330
1F
100
AcDbEntity
  8
0
100
AcDbLine
 10
1316.636339897476
 20
1248.722508803832
 30
0.0
 11
1340.255889603086
 21
1272.314533807365
 31
0.0
  0
LINE
  5
10B6
330
1F
100
AcDbEntity
  8
0
100
AcDbLine
 10
1320.698652525866
 20
1248.704049919356
 30
0.0
 11
1344.275503033629
 21
1272.316327953376
 31
0.0
  0
LINE
  5
10B7
330
1F
100
AcDbEntity
  8
0
100
AcDbLine
 10
1348.255407083041
 20
1272.316327953376
 30
0.0
 11
1324.678556575278
 21
1248.704049919356
 31
0.0
  0
LINE
  5
10B8
330
1F
100
AcDbEntity
  8
0
100
AcDbLine
 10
1328.676137165615
 20
1248.714214705632
 30
0.0
 11
1352.252987673378
 21
1272.326492739653
 31
0.0
  0
LINE
  5
10B9
330
1F
100
AcDbEntity
  8
0
100
AcDbLine
 10
1332.656041215027
 20
1248.714214705632
 30
0.0
 11
1356.232891722789
 21
1272.326492739653
 31
0.0
  0
LINE
  5
10BA
330
1F
100
AcDbEntity
  8
0
100
AcDbLine
 10
1336.67565464557
 20
1248.716008851644
 30
0.0
 11
1360.278042141906
 21
1272.315614581328
 31
0.0
  0
LINE
  5
10BB
330
1F
100
AcDbEntity
  8
0
100
AcDbLine
 10
1340.655558694981
 20
1248.716008851644
 30
0.0
 11
1364.257946191318
 21
1272.315614581328
 31
0.0
  0
LINE
  5
10BC
330
1F
100
AcDbEntity
  8
0
100
AcDbLine
 10
1344.653139285318
 20
1248.72617363792
 30
0.0
 11
1368.255526781655
 21
1272.325779367604
 31
0.0
  0
LINE
  5
10BD
330
1F
100
AcDbEntity
  8
0
100
AcDbLine
 10
1348.63304333473
 20
1248.72617363792
 30
0.0
 11
1372.235430831067
 21
1272.325779367604
 31
0.0
  0
LINE
  5
10BE
330
1F
100
AcDbEntity
  8
0
100
AcDbLine
 10
1352.678193753847
 20
1248.715295479595
 30
0.0
 11
1376.25504426161
 21
1272.327573513615
 31
0.0
  0
LINE
  5
10BF
330
1F
100
AcDbEntity
  8
0
100
AcDbLine
 10
1356.658097803259
 20
1248.715295479595
 30
0.0
 11
1380.234948311022
 21
1272.327573513615
 31
0.0
  0
LINE
  5
10C0
330
1F
100
AcDbEntity
  8
0
100
AcDbLine
 10
1360.655678393596
 20
1248.725460265871
 30
0.0
 11
1384.232528901359
 21
1272.337738299891
 31
0.0
  0
LINE
  5
10C1
330
1F
100
AcDbEntity
  8
0
100
AcDbLine
 10
1364.635582443007
 20
1248.725460265871
 30
0.0
 11
1387.005267368266
 21
1271.002610571086
 31
0.0
  0
LINE
  5
10C2
330
1F
100
AcDbEntity
  8
0
100
AcDbLine
 10
1368.655195873551
 20
1248.727254411883
 30
0.0
 11
1386.993652266443
 21
1266.956511270402
 31
0.0
  0
LINE
  5
10C3
330
1F
100
AcDbEntity
  8
0
100
AcDbLine
 10
1372.635099922962
 20
1248.727254411883
 30
0.0
 11
1386.993652266443
 21
1263.010945380011
 31
0.0
  0
LINE
  5
10C4
330
1F
100
AcDbEntity
  8
0
100
AcDbLine
 10
1376.7032911323
 20
1248.701367885386
 30
0.0
 11
1386.994396390613
 21
1259.000018689189
 31
0.0
  0
LINE
  5
10C5
330
1F
100
AcDbEntity
  8
0
100
AcDbLine
 10
1380.683195181712
 20
1248.701367885386
 30
0.0
 11
1386.994396390613
 21
1255.001133596085
 31
0.0
  0
LINE
  5
10C6
330
1F
100
AcDbEntity
  8
0
100
AcDbLine
 10
1384.711639908456
 20
1248.706467227124
 30
0.0
 11
1386.997278180583
 21
1250.990063006181
 31
0.0
  0
CIRCLE
  5
10F9
330
1F
100
AcDbEntity
  8
0
100
AcDbCircle
 10
1258.800001281712
 20
1576.181978182766
 30
0.0
 40
1.6
  0
CIRCLE
  5
10FA
330
1F
100
AcDbEntity
  8
0
100
AcDbCircle
 10
1258.800001281712
 20
1494.481979009253
 30
0.0
 40
1.6
  0
CIRCLE
  5
10FC
330
1F
100
AcDbEntity
  8
0
100
AcDbCircle
 10
1385.511622328031
 20
1494.481751450234
 30
0.0
 40
1.6
  0
CIRCLE
  5
1114
330
1F
100
AcDbEntity
  8
0
100
AcDbCircle
 10
1258.8
 20
1312.482
 30
0.0
 40
1.6
  0
CIRCLE
  5
1115
330
1F
100
AcDbEntity
  8
0
100
AcDbCircle
 10
1385.5
 20
1312.482
 30
0.0
 40
1.6
  0
CIRCLE
  5
1116
330
1F
100
AcDbEntity
  8
0
100
AcDbCircle
 10
1385.5
 20
1394.182
 30
0.0
 40
1.6
  0
CIRCLE
  5
1117
330
1F
100
AcDbEntity
  8
0
100
AcDbCircle
 10
1258.8
 20
1394.182
 30
0.0
 40
1.6
  0
LINE
  5
1214
330
1F
100
AcDbEntity
  8
0
100
AcDbLine
 10
1394.0
 20
1534.0
 30
0.0
 11
1394.0
 21
1572.0
 31
0.0
  0
LINE
  5
1216
330
1F
100
AcDbEntity
  8
0
100
AcDbLine
 10
1250.0
 20
1569.0
 30
0.0
 11
1259.0
 21
1569.0
 31
0.0
  0
LINE
  5
1217
330
1F
100
AcDbEntity
  8
0
100
AcDbLine
 10
1259.0
 20
1569.0
 30
0.0
 11
1259.0
 21
1544.0
 31
0.0
  0
LINE
  5
1218
330
1F
100
AcDbEntity
  8
0
100
AcDbLine
 10
1259.0
 20
1544.0
 30
0.0
 11
1250.0
 21
1544.0
 31
0.0
  0
LINE
  5
1219
330
1F
100
AcDbEntity
  8
0
100
AcDbLine
 10
1250.0
 20
1544.0
 30
0.0
 11
1250.0
 21
1569.0
 31
0.0
  0
LINE
  5
121C
330
1F
100
AcDbEntity
  8
0
100
AcDbLine
 10
1307.0
 20
1483.0
 30
0.0
 11
1307.0
 21
1488.0
 31
0.0
  0
LINE
  5
121D
330
1F
100
AcDbEntity
  8
0
100
AcDbLine
 10
1307.0
 20
1488.0
 30
0.0
 11
1322.0
 21
1488.0
 31
0.0
  0
LINE
  5
121F
330
1F
100
AcDbEntity
  8
0
100
AcDbLine
 10
1322.0
 20
1488.0
 30
0.0
 11
1322.0
 21
1483.0
 31
0.0
  0
LINE
  5
1220
330
1F
100
AcDbEntity
  8
0
100
AcDbLine
 10
1322.0
 20
1483.0
 30
0.0
 11
1307.0
 21
1483.0
 31
0.0
  0
LINE
  5
15C8
330
1F
100
AcDbEntity
  8
0
100
AcDbLine
 10
1264.0
 20
1433.699956104582
 30
0.0
 11
1282.0
 21
1433.699999384496
 31
0.0
  0
LINE
  5
15C9
330
1F
100
AcDbEntity
  8
0
100
AcDbLine
 10
1284.0
 20
1448.199999384496
 30
0.0
 11
1301.0
 21
1448.199999384496
 31
0.0
  0
ENDSEC
  0
SECTION
  2
OBJECTS
  0
DICTIONARY
  5
C
330
0
100
AcDbDictionary
281
     1
  3
ACAD_CIP_PREVIOUS_PRODUCT_INFO
350
216
  3
ACAD_COLOR
350
6B
  3
ACAD_DETAILVIEWSTYLE
350
21B
  3
ACAD_GROUP
350
D
  3
ACAD_LAYOUT
350
1A
  3
ACAD_MATERIAL
350
6A
  3
ACAD_MLEADERSTYLE
350
12D
  3
ACAD_MLINESTYLE
350
17
  3
ACAD_PLOTSETTINGS
350
19
  3
ACAD_PLOTSTYLENAME
350
E
  3
ACAD_SCALELIST
350
10C
  3
ACAD_SECTIONVIEWSTYLE
350
219
  3
ACAD_TABLESTYLE
350
7E
  3
ACAD_VISUALSTYLE
350
EF
  3
ACDB_RECOMPOSE_DATA
350
15CB
  3
AcDbVariableDictionary
350
5E
  0
DICTIONARY
  5
6DB
330
8
100
AcDbDictionary
280
     1
281
     1
  0
DICTIONARY
  5
1FF
330
2
100
AcDbDictionary
280
     1
281
     1
  3
ACAD_LAYERSTATES
360
200
  0
DICTIONARY
  5
13C
330
10
100
AcDbDictionary
280
     1
281
     1
  0
DICTIONARY
  5
1CE
330
1F
100
AcDbDictionary
280
     1
281
     1
  3
ACAD_SORTENTS
360
57D
  0
DICTIONARY
  5
4DB
330
4D9
100
AcDbDictionary
280
     1
281
     1
  0
DICTIONARY
  5
604
330
602
100
AcDbDictionary
280
     1
281
     1
  3
ACAD_SORTENTS
360
605
  0
DICTIONARY
  5
659
330
657
100
AcDbDictionary
280
     1
281
     1
  3
ACAD_SORTENTS
360
65A
  0
DICTIONARY
  5
78E
330
771
100
AcDbDictionary
280
     1
281
     1
  3
ACAD_SORTENTS
360
78F
  0
DICTIONARY
  5
80B
330
7BB
100
AcDbDictionary
280
     1
281
     1
  3
ACAD_SORTENTS
360
80C
  0
DICTIONARY
  5
DC7
330
DC5
100
AcDbDictionary
280
     1
281
     1
  3
ACAD_SORTENTS
360
DC8
  0
XRECORD
  5
216
102
{ACAD_REACTORS
330
C
102
}
330
C
100
AcDbXrecord
280
     1
300
ACD
300
2016
300
ACD_F_S
  0
DICTIONARY
  5
6B
102
{ACAD_REACTORS
330
C
102
}
330
C
100
AcDbDictionary
281
     1
  0
DICTIONARY
  5
21B
102
{ACAD_REACTORS
330
C
102
}
330
C
100
AcDbDictionary
281
     1
  3
Metric50
350
21C
  0
DICTIONARY
  5
D
102
{ACAD_REACTORS
330
C
102
}
330
C
100
AcDbDictionary
281
     1
  0
DICTIONARY
  5
1A
102
{ACAD_REACTORS
330
C
102
}
330
C
100
AcDbDictionary
281
     1
  3
Model
350
22
  3
布局1
350
D3
  3
布局2
350
D7
  0
DICTIONARY
  5
6A
102
{ACAD_REACTORS
330
C
102
}
330
C
100
AcDbDictionary
281
     1
  3
ByBlock
350
ED
  3
ByLayer
350
EC
  3
Global
350
EE
  0
DICTIONARY
  5
12D
102
{ACAD_REACTORS
330
C
102
}
330
C
100
AcDbDictionary
281
     1
  3
Annotative
350
13B
  3
Standard
350
12E
  0
DICTIONARY
  5
17
102
{ACAD_REACTORS
330
C
102
}
330
C
100
AcDbDictionary
281
     1
  3
Standard
350
18
  0
DICTIONARY
  5
19
102
{ACAD_REACTORS
330
C
102
}
330
C
100
AcDbDictionary
281
     1
  0
ACDBDICTIONARYWDFLT
  5
E
102
{ACAD_REACTORS
330
C
102
}
330
C
100
AcDbDictionary
281
     1
  3
Normal
350
F
100
AcDbDictionaryWithDefault
340
F
  0
DICTIONARY
  5
10C
102
{ACAD_REACTORS
330
C
102
}
330
C
100
AcDbDictionary
281
     1
  3
A0
350
10D
  3
A1
350
1BE
  3
A2
350
1BF
  3
A3
350
1C0
  3
A4
350
1C1
  3
A5
350
1C2
  3
A6
350
1C3
  3
A7
350
1C4
  3
A8
350
1C5
  3
A9
350
1C6
  3
B0
350
1C7
  3
B1
350
1C8
  3
B2
350
1C9
  3
B3
350
1CA
  3
B4
350
1CB
  3
B5
350
1CC
  3
B6
350
1CD
  0
DICTIONARY
  5
219
102
{ACAD_REACTORS
330
C
102
}
330
C
100
AcDbDictionary
281
     1
  3
Metric50
350
21A
  0
DICTIONARY
  5
7E
102
{ACAD_REACTORS
330
C
102
}
330
C
100
AcDbDictionary
281
     1
  3
Standard
350
7F
  0
DICTIONARY
  5
EF
102
{ACAD_REACTORS
330
C
102
}
330
C
100
AcDbDictionary
281
     1
  3
2dWireframe
350
F5
  3
Basic
350
F4
  3
Brighten
350
FB
  3
ColorChange
350
FF
  3
Conceptual
350
F8
  3
Dim
350
FA
  3
EdgeColorOff
350
1E6
  3
Facepattern
350
FE
  3
Flat
350
F0
  3
FlatWithEdges
350
F1
  3
Gouraud
350
F2
  3
GouraudWithEdges
350
F3
  3
Hidden
350
F7
  3
JitterOff
350
1E4
  3
Linepattern
350
FD
  3
OverhangOff
350
1E5
  3
Realistic
350
F9
  3
Shaded
350
1F3
  3
Shaded with edges
350
1F2
  3
Shades of Gray
350
1EF
  3
Sketchy
350
1F0
  3
Thicken
350
FC
  3
Wireframe
350
F6
  3
X-Ray
350
1F1
  0
XRECORD
  5
15CB
102
{ACAD_REACTORS
330
C
102
}
330
C
100
AcDbXrecord
280
     1
 90
        1
330
7F
  0
DICTIONARY
  5
5E
102
{ACAD_REACTORS
330
C
102
}
330
C
100
AcDbDictionary
281
     1
  3
CANNOSCALE
350
146
  3
CMLEADERSTYLE
350
145
  3
CTABLESTYLE
350
84
  3
CVIEWDETAILSTYLE
350
227
  3
CVIEWSECTIONSTYLE
350
228
  3
DIMASSOC
350
5F
  3
HIDETEXT
350
63
  3
LAYEREVAL
350
1AE
  3
LAYERNOTIFY
350
1AF
  3
LIGHTINGUNITS
350
715
  3
MSLTSCALE
350
714
  0
DICTIONARY
  5
200
102
{ACAD_REACTORS
330
1FF
102
}
330
1FF
100
AcDbDictionary
281
     1
  0
SORTENTSTABLE
  5
57D
102
{ACAD_REACTORS
330
1CE
102
}
330
1CE
100
AcDbSortentsTable
330
1F
331
347
  5
347
331
419
  5
419
331
343
  5
343
331
3C2
  5
3C2
331
460
  5
460
331
506
  5
506
331
3B6
  5
3B6
331
415
  5
415
331
4BB
  5
4BB
331
3B2
  5
3B2
331
32B
  5
32B
331
411
  5
411
331
5C4
  5
5CF
331
535
  5
535
331
4FA
  5
4FA
331
4A3
  5
4A3
331
2B0
  5
2B0
331
B5F
  5
B5F
331
B5B
  5
B5B
331
AD4
  5
AD4
331
DCD
  5
DCD
331
82A
  5
82A
331
B57
  5
B57
331
647
  5
648
331
72E
  5
72F
331
D62
  5
D62
331
B53
  5
B53
331
826
  5
826
331
643
  5
644
331
9BD
  5
9BD
331
822
  5
822
331
AC8
  5
AC8
331
76D
  5
76D
331
7AC
  5
7AC
331
62B
  5
62C
331
7A8
  5
7A8
331
40D
  5
40D
331
3AE
  5
3AE
331
454
  5
454
331
323
  5
323
331
409
  5
409
331
31F
  5
31F
331
405
  5
405
331
493
  5
493
331
448
  5
448
331
372
  5
372
331
401
  5
401
331
2A8
  5
2A8
331
4EA
  5
4EA
331
578
  5
579
331
2A0
  5
2A0
331
B4F
  5
B4F
331
B4B
  5
B4B
331
81E
  5
81E
331
AC4
  5
AC4
331
D95
  5
D95
331
B47
  5
B47
331
AC0
  5
AC0
331
627
  5
628
331
755
  5
75B
331
7A4
  5
7A4
331
81A
  5
81A
331
9B1
  5
9B1
331
D91
  5
D91
331
B43
  5
B43
331
816
  5
816
331
CB2
  5
CB2
331
751
  5
752
331
7A0
  5
7A0
331
74D
  5
74E
331
79C
  5
79C
331
AB8
  5
AB8
331
672
  5
673
331
613
  5
614
331
749
  5
74A
331
798
  5
798
331
36E
  5
36E
331
3FD
  5
3FD
331
36A
  5
36A
331
313
  5
313
331
3F9
  5
3F9
331
487
  5
487
331
574
  5
575
331
3F5
  5
3F5
331
438
  5
438
331
30B
  5
30B
331
35A
  5
35A
331
3F1
  5
3F1
331
515
  5
515
331
298
  5
298
331
47B
  5
47B
331
558
  5
559
331
294
  5
294
331
B3F
  5
B3F
331
CAE
  5
CAE
331
CAA
  5
CAA
331
66E
  5
66F
331
745
  5
748
331
794
  5
794
331
741
  5
742
331
73D
  5
73E
331
861
  5
861
331
356
  5
356
331
46F
  5
46F
331
4CA
  5
4CA
331
550
  5
551
331
5D7
  5
5E0
331
34A
  5
34A
331
420
  5
420
331
54C
  5
54D
331
548
  5
549
331
509
  5
509
331
B6A
  5
B6A
331
D75
  5
D75
331
B66
  5
B66
331
656
  5
65D
331
B62
  5
B62
331
B2B
  5
B2B
331
9DC
  5
9DC
331
85D
  5
85D
331
64E
  5
656
331
859
  5
859
331
64A
  5
64B
331
731
  5
732
331
346
  5
346
331
5CF
  5
5D7
331
45F
  5
45F
331
418
  5
418
331
342
  5
342
331
544
  5
546
331
3C1
  5
3C1
331
3B5
  5
3B5
331
4BA
  5
4BA
331
2FF
  5
2FF
331
3B1
  5
3B1
331
32A
  5
32A
331
410
  5
410
331
5C3
  5
5C4
331
4F9
  5
4F9
331
4A2
  5
4A2
331
B5E
  5
B5E
331
B5A
  5
B5A
331
7B7
  5
7B7
331
DCC
  5
DCC
331
B56
  5
B56
331
9C0
  5
9C0
331
646
  5
647
331
829
  5
829
331
D61
  5
D61
331
B52
  5
B52
331
642
  5
643
331
770
  5
770
331
7AF
  5
7AF
331
825
  5
825
331
7AB
  5
7AB
331
821
  5
821
331
62A
  5
62B
331
453
  5
453
331
3AD
  5
3AD
331
326
  5
326
331
40C
  5
40C
331
322
  5
322
331
408
  5
408
331
496
  5
496
331
404
  5
404
331
2AF
  5
2AF
331
371
  5
371
331
400
  5
400
331
2A7
  5
2A7
331
4E9
  5
4E9
331
520
  5
520
331
2A3
  5
2A3
331
DC4
  5
DC4
331
B4E
  5
B4E
331
B4A
  5
B4A
331
7A7
  5
7A7
331
81D
  5
81D
331
D94
  5
D94
331
B46
  5
B46
331
CB5
  5
CB5
331
626
  5
627
331
754
  5
755
331
7A3
  5
7A3
331
819
  5
819
331
750
  5
751
331
79F
  5
79F
331
815
  5
815
331
CB1
  5
CB1
331
74C
  5
74D
331
79B
  5
79B
331
9A8
  5
9A8
331
612
  5
613
331
671
  5
672
331
748
  5
749
331
447
  5
447
331
36D
  5
36D
331
3FC
  5
3FC
331
577
  5
578
331
312
  5
312
331
3F8
  5
3F8
331
486
  5
486
331
573
  5
574
331
30E
  5
30E
331
3F4
  5
3F4
331
43B
  5
43B
331
359
  5
359
331
3F0
  5
3F0
331
514
  5
514
331
4D1
  5
4D1
331
297
  5
297
331
47A
  5
47A
331
293
  5
293
331
AB7
  5
AB7
331
797
  5
797
331
AB3
  5
AB3
331
D84
  5
D84
331
C55
  5
C55
331
AAF
  5
AAF
331
66D
  5
66E
331
744
  5
745
331
9A0
  5
9A0
331
D80
  5
D80
331
740
  5
741
331
65D
  5
66D
331
73C
  5
73D
331
860
  5
860
331
557
  5
558
331
427
  5
427
331
46E
  5
46E
331
4C9
  5
4C9
331
54F
  5
550
331
349
  5
349
331
54B
  5
54C
331
508
  5
508
331
B6D
  5
B6D
331
B69
  5
B69
331
AA3
  5
AA3
331
D74
  5
D74
331
B65
  5
B65
331
B2E
  5
B2E
331
B61
  5
B61
331
9DB
  5
9DB
331
85C
  5
85C
331
64D
  5
64E
331
734
  5
73B
331
858
  5
858
331
649
  5
64A
331
730
  5
731
331
345
  5
345
331
3C4
  5
3C4
331
462
  5
462
331
417
  5
417
331
4BD
  5
4BD
331
3B4
  5
3B4
331
32D
  5
32D
331
2FE
  5
2FE
331
3B0
  5
3B0
331
4F8
  5
4F8
331
4A1
  5
4A1
331
D6C
  5
D6C
331
B5D
  5
B5D
331
AD6
  5
AD6
331
B59
  5
B59
331
7B6
  5
7B6
331
82C
  5
82C
331
DCB
  5
DCB
331
B55
  5
B55
331
9BF
  5
9BF
331
645
  5
646
331
828
  5
828
331
B51
  5
B51
331
641
  5
642
331
76F
  5
76F
331
7AE
  5
7AE
331
824
  5
824
331
7AA
  5
7AA
331
820
  5
820
331
629
  5
62A
331
40F
  5
40F
331
452
  5
452
331
3AC
  5
3AC
331
325
  5
325
331
40B
  5
40B
331
321
  5
321
331
407
  5
407
331
495
  5
495
331
403
  5
403
331
2AE
  5
2AE
331
370
  5
370
331
4EC
  5
4EC
331
57A
  5
57B
331
4E8
  5
4E8
331
2A6
  5
2A6
331
489
  5
489
331
2A2
  5
2A2
331
CBC
  5
CBC
331
B4D
  5
B4D
331
B49
  5
B49
331
7A6
  5
7A6
331
81C
  5
81C
331
D97
  5
D97
331
B45
  5
B45
331
CB4
  5
CB4
331
625
  5
626
331
753
  5
754
331
7A2
  5
7A2
331
818
  5
818
331
74F
  5
750
331
79E
  5
79E
331
814
  5
814
331
CB0
  5
CB0
331
615
  5
624
331
79A
  5
79A
331
670
  5
671
331
446
  5
446
331
3FF
  5
3FF
331
36C
  5
36C
331
3FB
  5
3FB
331
51F
  5
51F
331
576
  5
577
331
311
  5
311
331
3F7
  5
3F7
331
572
  5
573
331
30D
  5
30D
331
3F3
  5
3F3
331
43A
  5
43A
331
4D8
  5
4D8
331
358
  5
358
331
29A
  5
29A
331
513
  5
513
331
479
  5
479
331
292
  5
292
331
D8F
  5
D8F
331
AB6
  5
AB6
331
796
  5
796
331
D83
  5
D83
331
73B
  5
73C
331
5E1
  5
612
331
42E
  5
42E
331
3EF
  5
3EF
331
46D
  5
46D
331
552
  5
556
331
4C8
  5
4C8
331
54E
  5
54F
331
54A
  5
54B
331
301
  5
301
331
B6C
  5
B6C
331
AA6
  5
AA6
331
B68
  5
B68
331
B64
  5
B64
331
85F
  5
85F
331
D73
  5
D73
331
B60
  5
B60
331
9DA
  5
9DA
331
85B
  5
85B
331
64C
  5
64D
331
733
  5
734
331
7B9
  5
7B9
331
648
  5
649
331
3C3
  5
3C3
331
461
  5
461
331
507
  5
507
331
546
  5
548
331
3B7
  5
3B7
331
416
  5
416
331
4BC
  5
4BC
331
3B3
  5
3B3
331
32C
  5
32C
331
4FB
  5
4FB
331
4A0
  5
4A0
331
B5C
  5
B5C
331
D6B
  5
D6B
331
B58
  5
B58
331
AD1
  5
AD1
331
72F
  5
730
331
7B5
  5
7B5
331
82B
  5
82B
331
D63
  5
D63
331
9BE
  5
9BE
331
827
  5
827
331
B54
  5
B54
331
644
  5
645
331
AC9
  5
AC9
331
7AD
  5
7AD
331
823
  5
823
331
B50
  5
B50
331
76E
  5
76E
331
7A9
  5
7A9
331
62C
  5
641
331
628
  5
629
331
455
  5
455
331
3AF
  5
3AF
331
40E
  5
40E
331
324
  5
324
331
40A
  5
40A
331
4F7
  5
4F7
331
52E
  5
52E
331
320
  5
320
331
406
  5
406
331
494
  5
494
331
373
  5
373
331
402
  5
402
331
2AD
  5
2AD
331
2A9
  5
2A9
331
4EB
  5
4EB
331
579
  5
57A
331
488
  5
488
331
2A1
  5
2A1
331
B4C
  5
B4C
331
81F
  5
81F
331
D96
  5
D96
331
AC1
  5
AC1
331
9B2
  5
9B2
331
B48
  5
B48
331
7A5
  5
7A5
331
81B
  5
81B
331
D92
  5
D92
331
B44
  5
B44
331
817
  5
817
331
CB3
  5
CB3
331
624
  5
625
331
752
  5
753
331
7A1
  5
7A1
331
74E
  5
74F
331
79D
  5
79D
331
813
  5
813
331
673
  5
72E
331
614
  5
615
331
74A
  5
74C
331
799
  5
799
331
445
  5
445
331
36F
  5
36F
331
3FE
  5
3FE
331
36B
  5
36B
331
3FA
  5
3FA
331
51E
  5
51E
331
575
  5
576
331
310
  5
310
331
3F6
  5
3F6
331
571
  5
572
331
439
  5
439
331
30C
  5
30C
331
3F2
  5
3F2
331
299
  5
299
331
47C
  5
47C
331
559
  5
571
331
291
  5
291
331
D8E
  5
D8E
331
CAF
  5
CAF
331
66F
  5
670
331
795
  5
795
331
D82
  5
D82
331
742
  5
744
331
73E
  5
740
331
5E0
  5
5E1
331
357
  5
357
331
3EE
  5
3EE
331
46C
  5
46C
331
551
  5
552
331
34B
  5
34B
331
4C7
  5
4C7
331
54D
  5
54E
331
549
  5
54A
331
50A
  5
50A
331
300
  5
300
331
AA5
  5
AA5
331
B6B
  5
B6B
331
D76
  5
D76
331
B67
  5
B67
331
B63
  5
B63
331
85E
  5
85E
331
B2C
  5
B2C
331
9D9
  5
9D9
331
85A
  5
85A
331
64B
  5
64C
331
732
  5
733
331
7B8
  5
7B8
  0
SORTENTSTABLE
  5
605
102
{ACAD_REACTORS
330
604
102
}
330
604
100
AcDbSortentsTable
330
602
  0
SORTENTSTABLE
  5
65A
102
{ACAD_REACTORS
330
659
102
}
330
659
100
AcDbSortentsTable
330
657
  0
SORTENTSTABLE
  5
78F
102
{ACAD_REACTORS
330
78E
102
}
330
78E
100
AcDbSortentsTable
330
771
  0
SORTENTSTABLE
  5
80C
102
{ACAD_REACTORS
330
80B
102
}
330
80B
100
AcDbSortentsTable
330
7BB
  0
SORTENTSTABLE
  5
DC8
102
{ACAD_REACTORS
330
DC7
102
}
330
DC7
100
AcDbSortentsTable
330
DC5
  0
ACDBDETAILVIEWSTYLE
  5
21C
102
{ACAD_XDICTIONARY
360
15FE
102
}
102
{ACAD_REACTORS
330
21B
102
}
330
21B
100
AcDbModelDocViewStyle
 70
     0
  3
Metric50
290
     0
100
AcDbDetailViewStyle
 70
     0
 71
     0
 90
        3
 71
     1
340
11
 62
   256
 40
5.0
340
0
 62
   256
 40
5.0
300

 40
0.0
280
     1
 71
     2
340
16
 90
       25
 62
   256
 71
     3
340
11
 62
   256
 40
5.0
 90
        0
 40
15.0
 90
        1
300
%<\AcVar ViewDetailId>% (%<\AcVar ViewScale \f "%sn">%)
 71
     4
340
16
 90
       25
 62
   256
340
16
 90
       25
 62
   256
280
     0
  0
LAYOUT
  5
22
102
{ACAD_XDICTIONARY
360
205
102
}
102
{ACAD_REACTORS
330
1A
102
}
330
1A
100
AcDbPlotSettings
  1

  2
none_device
  4
ISO_A4_(210.00_x_297.00_MM)
  6

 40
7.5
 41
20.0
 42
7.5
 43
20.0
 44
210.0
 45
297.0
 46
11.54999923706054
 47
-13.65000009536743
 48
0.0
 49
0.0
140
0.0
141
0.0
142
1.0
143
8.704084754739808
 70
 11952
 72
     1
 73
     0
 74
     0
  7

 75
     0
147
0.1148885871608098
 76
     0
 77
     2
 78
   300
148
0.0
149
0.0
100
AcDbLayout
  1
Model
 70
     1
 71
     0
 10
0.0
 20
0.0
 11
12.0
 21
9.0
 12
0.0
 22
0.0
 32
0.0
 14
0.0
 24
0.0
 34
0.0
 15
0.0
 25
0.0
 35
0.0
146
0.0
 13
0.0
 23
0.0
 33
0.0
 16
1.0
 26
0.0
 36
0.0
 17
0.0
 27
1.0
 37
0.0
 76
     0
330
1F
331
EA
1001
ACAD_PSEXT
1000
None
1000
None
1000
Not applicable
1000
The layout will not be plotted unless a new plotter configuration name is selected.
1070
     0
  0
LAYOUT
  5
D3
102
{ACAD_REACTORS
330
1A
102
}
330
1A
100
AcDbPlotSettings
  1

  2
C:\Documents and Settings\basas\Application Data\Autodesk\AutoCAD 2005\R16.1\enu\plotters\Default Windows System Printer.pc3
  4

  6

 40
0.0
 41
0.0
 42
0.0
 43
0.0
 44
0.0
 45
0.0
 46
0.0
 47
0.0
 48
0.0
 49
0.0
140
0.0
141
0.0
142
1.0
143
1.0
 70
   688
 72
     0
 73
     0
 74
     5
  7

 75
    16
147
1.0
 76
     0
 77
     2
 78
   300
148
0.0
149
0.0
100
AcDbLayout
  1
布局1
 70
     1
 71
     1
 10
0.0
 20
0.0
 11
12.0
 21
9.0
 12
0.0
 22
0.0
 32
0.0
 14
0.0
 24
0.0
 34
0.0
 15
0.0
 25
0.0
 35
0.0
146
0.0
 13
0.0
 23
0.0
 33
0.0
 16
1.0
 26
0.0
 36
0.0
 17
0.0
 27
1.0
 37
0.0
 76
     0
330
D2
  0
LAYOUT
  5
D7
102
{ACAD_REACTORS
330
1A
102
}
330
1A
100
AcDbPlotSettings
  1

  2
C:\Documents and Settings\basas\Application Data\Autodesk\AutoCAD 2005\R16.1\enu\plotters\Default Windows System Printer.pc3
  4

  6

 40
0.0
 41
0.0
 42
0.0
 43
0.0
 44
0.0
 45
0.0
 46
0.0
 47
0.0
 48
0.0
 49
0.0
140
0.0
141
0.0
142
1.0
143
1.0
 70
   688
 72
     0
 73
     0
 74
     5
  7

 75
    16
147
1.0
 76
     0
 77
     2
 78
   300
148
0.0
149
0.0
100
AcDbLayout
  1
布局2
 70
     1
 71
     2
 10
0.0
 20
0.0
 11
12.0
 21
9.0
 12
0.0
 22
0.0
 32
0.0
 14
0.0
 24
0.0
 34
0.0
 15
0.0
 25
0.0
 35
0.0
146
0.0
 13
0.0
 23
0.0
 33
0.0
 16
1.0
 26
0.0
 36
0.0
 17
0.0
 27
1.0
 37
0.0
 76
     0
330
D6
  0
MATERIAL
  5
ED
102
{ACAD_XDICTIONARY
360
1F9
102
}
102
{ACAD_REACTORS
330
6A
102
}
330
6A
100
AcDbMaterial
  1
ByBlock
 94
       63
  0
MATERIAL
  5
EC
102
{ACAD_XDICTIONARY
360
1F7
102
}
102
{ACAD_REACTORS
330
6A
102
}
330
6A
100
AcDbMaterial
  1
ByLayer
 94
       63
  0
MATERIAL
  5
EE
102
{ACAD_XDICTIONARY
360
173
102
}
102
{ACAD_REACTORS
330
6A
102
}
330
6A
100
AcDbMaterial
  1
Global
 43
0.0007999999797903
 43
0.0
 43
0.0
 43
0.0
 43
0.0
 43
0.0007999999797903
 43
0.0
 43
0.0
 43
0.0
 43
0.0
 43
1.0
 43
0.0
 43
0.0
 43
0.0
 43
0.0
 43
1.0
 49
0.0007999999797903
 49
0.0
 49
0.0
 49
0.0
 49
0.0
 49
0.0007999999797903
 49
0.0
 49
0.0
 49
0.0
 49
0.0
 49
1.0
 49
0.0
 49
0.0
 49
0.0
 49
0.0
 49
1.0
142
0.0007999999797903
142
0.0
142
0.0
142
0.0
142
0.0
142
0.0007999999797903
142
0.0
142
0.0
142
0.0
142
0.0
142
1.0
142
0.0
142
0.0
142
0.0
142
0.0
142
1.0
144
0.0007999999797903
144
0.0
144
0.0
144
0.0
144
0.0
144
0.0007999999797903
144
0.0
144
0.0
144
0.0
144
0.0
144
1.0
144
0.0
144
0.0
144
0.0
144
0.0
144
1.0
 94
       63
1001
ACAD
1070
    -1
1070
     3
1070
     0
1000

1071
        0
1070
     0
  0
MLEADERSTYLE
  5
13B
102
{ACAD_REACTORS
330
12D
102
}
330
12D
100
AcDbMLeaderStyle
179
     2
170
     2
171
     1
172
     0
 90
        2
 40
0.0
 41
0.0
173
     1
 91
-1056964608
340
14
 92
       -2
290
     1
 42
2.0
291
     1
 43
8.0
  3
Standard
 44
4.0
300

342
11
174
     1
178
     1
175
     1
176
     0
 93
-1056964608
 45
4.0
292
     0
297
     0
 46
4.0
 94
-1056964608
 47
1.0
 49
1.0
140
1.0
293
     1
141
0.0
294
     1
177
     0
142
1.0
295
     0
296
     1
143
3.75
271
     0
272
     9
273
     9
  0
MLEADERSTYLE
  5
12E
102
{ACAD_REACTORS
330
12D
102
}
330
12D
100
AcDbMLeaderStyle
179
     2
170
     2
171
     1
172
     0
 90
        2
 40
0.0
 41
0.0
173
     1
 91
-1056964608
340
14
 92
       -2
290
     1
 42
2.0
291
     1
 43
8.0
  3
Standard
 44
4.0
300

342
11
174
     1
178
     1
175
     1
176
     0
 93
-1056964608
 45
4.0
292
     0
297
     0
 46
4.0
 94
-1056964608
 47
1.0
 49
1.0
140
1.0
293
     1
141
0.0
294
     1
177
     0
142
1.0
295
     0
296
     0
143
3.75
271
     0
272
     9
273
     9
  0
MLINESTYLE
  5
18
102
{ACAD_REACTORS
330
17
102
}
330
17
100
AcDbMlineStyle
  2
STANDARD
 70
     0
  3

 62
   256
 51
90.0
 52
90.0
 71
     2
 49
0.5
 62
   256
  6
BYLAYER
 49
-0.5
 62
   256
  6
BYLAYER
  0
ACDBPLACEHOLDER
  5
F
102
{ACAD_REACTORS
330
E
102
}
330
E
  0
SCALE
  5
10D
102
{ACAD_REACTORS
330
10C
102
}
330
10C
100
AcDbScale
 70
     0
300
1:1
140
1.0
141
1.0
290
     1
  0
SCALE
  5
1BE
102
{ACAD_REACTORS
330
10C
102
}
330
10C
100
AcDbScale
 70
     0
300
1:2
140
1.0
141
2.0
290
     0
  0
SCALE
  5
1BF
102
{ACAD_REACTORS
330
10C
102
}
330
10C
100
AcDbScale
 70
     0
300
1:4
140
1.0
141
4.0
290
     0
  0
SCALE
  5
1C0
102
{ACAD_REACTORS
330
10C
102
}
330
10C
100
AcDbScale
 70
     0
300
1:5
140
1.0
141
5.0
290
     0
  0
SCALE
  5
1C1
102
{ACAD_REACTORS
330
10C
102
}
330
10C
100
AcDbScale
 70
     0
300
1:8
140
1.0
141
8.0
290
     0
  0
SCALE
  5
1C2
102
{ACAD_REACTORS
330
10C
102
}
330
10C
100
AcDbScale
 70
     0
300
1:10
140
1.0
141
10.0
290
     0
  0
SCALE
  5
1C3
102
{ACAD_REACTORS
330
10C
102
}
330
10C
100
AcDbScale
 70
     0
300
1:16
140
1.0
141
16.0
290
     0
  0
SCALE
  5
1C4
102
{ACAD_REACTORS
330
10C
102
}
330
10C
100
AcDbScale
 70
     0
300
1:20
140
1.0
141
20.0
290
     0
  0
SCALE
  5
1C5
102
{ACAD_REACTORS
330
10C
102
}
330
10C
100
AcDbScale
 70
     0
300
1:30
140
1.0
141
30.0
290
     0
  0
SCALE
  5
1C6
102
{ACAD_REACTORS
330
10C
102
}
330
10C
100
AcDbScale
 70
     0
300
1:40
140
1.0
141
40.0
290
     0
  0
SCALE
  5
1C7
102
{ACAD_REACTORS
330
10C
102
}
330
10C
100
AcDbScale
 70
     0
300
1:50
140
1.0
141
50.0
290
     0
  0
SCALE
  5
1C8
102
{ACAD_REACTORS
330
10C
102
}
330
10C
100
AcDbScale
 70
     0
300
1:100
140
1.0
141
100.0
290
     0
  0
SCALE
  5
1C9
102
{ACAD_REACTORS
330
10C
102
}
330
10C
100
AcDbScale
 70
     0
300
2:1
140
2.0
141
1.0
290
     0
  0
SCALE
  5
1CA
102
{ACAD_REACTORS
330
10C
102
}
330
10C
100
AcDbScale
 70
     0
300
4:1
140
4.0
141
1.0
290
     0
  0
SCALE
  5
1CB
102
{ACAD_REACTORS
330
10C
102
}
330
10C
100
AcDbScale
 70
     0
300
8:1
140
8.0
141
1.0
290
     0
  0
SCALE
  5
1CC
102
{ACAD_REACTORS
330
10C
102
}
330
10C
100
AcDbScale
 70
     0
300
10:1
140
10.0
141
1.0
290
     0
  0
SCALE
  5
1CD
102
{ACAD_REACTORS
330
10C
102
}
330
10C
100
AcDbScale
 70
     0
300
100:1
140
100.0
141
1.0
290
     0
  0
ACDBSECTIONVIEWSTYLE
  5
21A
102
{ACAD_XDICTIONARY
360
15FC
102
}
102
{ACAD_REACTORS
330
219
102
}
330
219
100
AcDbModelDocViewStyle
 70
     0
  3
Metric50
290
     0
100
AcDbSectionViewStyle
 70
     0
 71
     0
 90
      102
 71
     1
340
11
 62
   256
 40
5.0
340
0
340
0
 62
   256
 40
5.0
300
I, O, Q, S, X, Z
 40
10.0
 90
        0
 40
2.5
 90
        0
 71
     2
340
16
 90
       25
 62
   256
340
16
 90
       50
 62
   256
 40
5.0
 40
2.5
 40
5.0
 71
     3
340
11
 62
   256
 40
5.0
 90
        0
 40
15.0
 90
        1
300
%<\AcVar ViewSectionStartId>%-%<\AcVar ViewSectionEndId>% (%<\AcVar ViewScale \f "%sn">%)
 71
     4
 62
   256
 62
   257
300
ANSI31
 40
1.0
 90
        0
290
     0
290
     0
 90
        6
 40
0.0
 40
1.570796326794896
 40
0.2617993877991494
 40
1.308996938995747
 40
-0.2617993877991494
 40
1.832595714594046
  0
TABLESTYLE
  5
7F
102
{ACAD_XDICTIONARY
360
162
102
}
102
{ACAD_REACTORS
330
7E
102
}
330
7E
100
AcDbTableStyle
280
     0
  3
Standard
 70
     0
 71
     0
 40
1.5
 41
1.5
280
     0
281
     0
  7
Standard
140
4.5
170
     2
 62
     0
 63
     7
283
     0
 90
      512
 91
        0
  1

274
    -2
284
     1
 64
     0
275
    -2
285
     1
 65
     0
276
    -2
286
     1
 66
     0
277
    -2
287
     1
 67
     0
278
    -2
288
     1
 68
     0
279
    -2
289
     1
 69
     0
  7
Standard
140
6.0
170
     5
 62
     0
 63
     7
283
     0
 90
      512
 91
        0
  1

274
    -2
284
     1
 64
     0
275
    -2
285
     1
 65
     0
276
    -2
286
     1
 66
     0
277
    -2
287
     1
 67
     0
278
    -2
288
     1
 68
     0
279
    -2
289
     1
 69
     0
  7
Standard
140
4.5
170
     5
 62
     0
 63
     7
283
     0
 90
      512
 91
        0
  1

274
    -2
284
     1
 64
     0
275
    -2
285
     1
 65
     0
276
    -2
286
     1
 66
     0
277
    -2
287
     1
 67
     0
278
    -2
288
     1
 68
     0
279
    -2
289
     1
 69
     0
  0
VISUALSTYLE
  5
F5
102
{ACAD_XDICTIONARY
360
15D6
102
}
102
{ACAD_REACTORS
330
EF
102
}
330
EF
100
AcDbVisualStyle
  2
2dWireframe
 70
     4
177
     2
291
     0
 71
     0
176
     1
 72
     2
176
     1
 73
     1
176
     1
 90
        0
176
     1
 40
0.6
176
     1
 41
30.0
176
     1
 63
     7
421
 16777215
176
     1
 74
     1
176
     1
 91
        4
176
     1
 64
     7
176
     1
 65
   257
176
     1
 75
     1
176
     1
175
     1
176
     1
 42
1.0
176
     1
 92
        0
176
     1
 66
   257
176
     1
 43
1.0
176
     1
 76
     1
176
     1
 77
     6
176
     1
 78
     2
176
     1
 67
     7
176
     1
 79
     5
176
     1
170
     0
176
     1
171
     0
176
     1
290
     0
176
     1
 93
        1
176
     1
 44
0.0
176
     1
173
     0
176
     1
1001
ACAD
1000
AcDbSavedByObjectVersion
1070
     0
  0
VISUALSTYLE
  5
F4
102
{ACAD_XDICTIONARY
360
15D4
102
}
102
{ACAD_REACTORS
330
EF
102
}
330
EF
100
AcDbVisualStyle
  2
Basic
 70
     7
177
     2
291
     1
 71
     1
176
     1
 72
     0
176
     1
 73
     1
176
     1
 90
        0
176
     1
 40
0.6
176
     1
 41
30.0
176
     1
 63
     7
421
 16777215
176
     1
 74
     0
176
     1
 91
        4
176
     1
 64
     7
176
     1
 65
   257
176
     1
 75
     1
176
     1
175
     1
176
     1
 42
1.0
176
     1
 92
        8
176
     1
 66
     7
176
     1
 43
1.0
176
     1
 76
     1
176
     1
 77
     6
176
     1
 78
     2
176
     1
 67
     7
176
     1
 79
     5
176
     1
170
     0
176
     1
171
     0
176
     1
290
     0
176
     1
 93
        1
176
     1
 44
0.0
176
     1
173
     0
176
     1
1001
ACAD
1000
AcDbSavedByObjectVersion
1070
     0
  0
VISUALSTYLE
  5
FB
102
{ACAD_XDICTIONARY
360
15E2
102
}
102
{ACAD_REACTORS
330
EF
102
}
330
EF
100
AcDbVisualStyle
  2
Brighten
 70
    12
177
     2
291
     1
 71
     2
176
     1
 72
     2
176
     1
 73
     1
176
     1
 90
        0
176
     1
 40
0.6
176
     1
 41
30.0
176
     1
 63
     7
421
 16777215
176
     1
 74
     1
176
     1
 91
        4
176
     1
 64
     7
176
     1
 65
   257
176
     1
 75
     1
176
     1
175
     1
176
     1
 42
1.0
176
     1
 92
        8
176
     1
 66
     7
176
     1
 43
1.0
176
     1
 76
     1
176
     1
 77
     6
176
     1
 78
     2
176
     1
 67
     7
176
     1
 79
     5
176
     1
170
     0
176
     1
171
     0
176
     1
290
     0
176
     1
 93
        1
176
     1
 44
50.0
176
     1
173
     0
176
     1
1001
ACAD
1000
AcDbSavedByObjectVersion
1070
     0
  0
VISUALSTYLE
  5
FF
102
{ACAD_XDICTIONARY
360
15EA
102
}
102
{ACAD_REACTORS
330
EF
102
}
330
EF
100
AcDbVisualStyle
  2
ColorChange
 70
    16
177
     2
291
     1
 71
     2
176
     1
 72
     2
176
     1
 73
     3
176
     1
 90
        0
176
     1
 40
0.6
176
     1
 41
30.0
176
     1
 63
     8
421
  8421504
176
     1
 74
     1
176
     1
 91
        4
176
     1
 64
     7
176
     1
 65
   257
176
     1
 75
     1
176
     1
175
     1
176
     1
 42
1.0
176
     1
 92
        8
176
     1
 66
     8
424
  8421504
176
     1
 43
1.0
176
     1
 76
     1
176
     1
 77
     6
176
     1
 78
     2
176
     1
 67
     7
176
     1
 79
     5
176
     1
170
     0
176
     1
171
     0
176
     1
290
     0
176
     1
 93
        1
176
     1
 44
0.0
176
     1
173
     0
176
     1
1001
ACAD
1000
AcDbSavedByObjectVersion
1070
     0
  0
VISUALSTYLE
  5
F8
102
{ACAD_XDICTIONARY
360
15DC
102
}
102
{ACAD_REACTORS
330
EF
102
}
330
EF
100
AcDbVisualStyle
  2
Conceptual
 70
     9
177
     2
291
     0
 71
     3
176
     1
 72
     2
176
     1
 73
     1
176
     1
 90
        0
176
     1
 40
0.6
176
     1
 41
30.0
176
     1
 63
     7
421
 16777215
176
     1
 74
     2
176
     1
 91
        2
176
     1
 64
     7
176
     1
 65
   257
176
     1
 75
     1
176
     1
175
     1
176
     1
 42
40.0
176
     1
 92
        8
176
     1
 66
     7
176
     1
 43
1.0
176
     1
 76
     1
176
     1
 77
     6
176
     1
 78
     2
176
     1
 67
     7
176
     1
 79
     3
176
     1
170
     0
176
     1
171
     0
176
     1
290
     0
176
     1
 93
        1
176
     1
 44
0.0
176
     1
173
     0
176
     1
1001
ACAD
1000
AcDbSavedByObjectVersion
1070
     0
  0
VISUALSTYLE
  5
FA
102
{ACAD_XDICTIONARY
360
15E0
102
}
102
{ACAD_REACTORS
330
EF
102
}
330
EF
100
AcDbVisualStyle
  2
Dim
 70
    11
177
     2
291
     1
 71
     2
176
     1
 72
     2
176
     1
 73
     1
176
     1
 90
        0
176
     1
 40
0.6
176
     1
 41
30.0
176
     1
 63
     7
421
 16777215
176
     1
 74
     1
176
     1
 91
        4
176
     1
 64
     7
176
     1
 65
   257
176
     1
 75
     1
176
     1
175
     1
176
     1
 42
1.0
176
     1
 92
        8
176
     1
 66
     7
176
     1
 43
1.0
176
     1
 76
     1
176
     1
 77
     6
176
     1
 78
     2
176
     1
 67
     7
176
     1
 79
     5
176
     1
170
     0
176
     1
171
     0
176
     1
290
     0
176
     1
 93
        1
176
     1
 44
-50.0
176
     1
173
     0
176
     1
1001
ACAD
1000
AcDbSavedByObjectVersion
1070
     0
  0
VISUALSTYLE
  5
1E6
102
{ACAD_XDICTIONARY
360
15F0
102
}
102
{ACAD_REACTORS
330
EF
102
}
330
EF
100
AcDbVisualStyle
  2
EdgeColorOff
 70
    22
177
     2
291
     1
 71
     2
176
     0
 72
     2
176
     0
 73
     0
176
     0
 90
        0
176
     0
 40
0.6
176
     0
 41
30.0
176
     0
 63
     7
421
 16777215
176
     0
 74
     1
176
     0
 91
        4
176
     0
 64
     7
176
     0
 65
   257
176
     0
 75
     1
176
     0
175
     1
176
     0
 42
1.0
176
     0
 92
        8
176
     2
 66
     7
176
     0
 43
1.0
176
     0
 76
     1
176
     0
 77
     6
176
     0
 78
     2
176
     0
 67
     7
176
     0
 79
     5
176
     0
170
     0
176
     0
171
     0
176
     0
290
     0
176
     0
 93
        1
176
     0
 44
0.0
176
     0
173
     0
176
     0
1001
ACAD
1000
AcDbSavedByObjectVersion
1070
     0
  0
VISUALSTYLE
  5
FE
102
{ACAD_XDICTIONARY
360
15E8
102
}
102
{ACAD_REACTORS
330
EF
102
}
330
EF
100
AcDbVisualStyle
  2
Facepattern
 70
    15
177
     2
291
     1
 71
     2
176
     1
 72
     2
176
     1
 73
     1
176
     1
 90
        0
176
     1
 40
0.6
176
     1
 41
30.0
176
     1
 63
     7
421
 16777215
176
     1
 74
     1
176
     1
 91
        4
176
     1
 64
     7
176
     1
 65
   257
176
     1
 75
     1
176
     1
175
     1
176
     1
 42
1.0
176
     1
 92
        8
176
     1
 66
     7
176
     1
 43
1.0
176
     1
 76
     1
176
     1
 77
     6
176
     1
 78
     2
176
     1
 67
     7
176
     1
 79
     5
176
     1
170
     0
176
     1
171
     0
176
     1
290
     0
176
     1
 93
        1
176
     1
 44
0.0
176
     1
173
     0
176
     1
1001
ACAD
1000
AcDbSavedByObjectVersion
1070
     0
  0
VISUALSTYLE
  5
F0
102
{ACAD_XDICTIONARY
360
15CC
102
}
102
{ACAD_REACTORS
330
EF
102
}
330
EF
100
AcDbVisualStyle
  2
Flat
 70
     0
177
     2
291
     1
 71
     2
176
     1
 72
     1
176
     1
 73
     1
176
     1
 90
        2
176
     1
 40
0.6
176
     1
 41
30.0
176
     1
 63
     7
421
 16777215
176
     1
 74
     0
176
     1
 91
        0
176
     1
 64
     7
176
     1
 65
   257
176
     1
 75
     1
176
     1
175
     1
176
     1
 42
1.0
176
     1
 92
        8
176
     1
 66
     7
176
     1
 43
1.0
176
     1
 76
     1
176
     1
 77
     6
176
     1
 78
     2
176
     1
 67
     7
176
     1
 79
     5
176
     1
170
     0
176
     1
171
     0
176
     1
290
     0
176
     1
 93
       13
176
     1
 44
0.0
176
     1
173
     0
176
     1
1001
ACAD
1000
AcDbSavedByObjectVersion
1070
     0
  0
VISUALSTYLE
  5
F1
102
{ACAD_XDICTIONARY
360
15CE
102
}
102
{ACAD_REACTORS
330
EF
102
}
330
EF
100
AcDbVisualStyle
  2
FlatWithEdges
 70
     1
177
     2
291
     1
 71
     2
176
     1
 72
     1
176
     1
 73
     1
176
     1
 90
        2
176
     1
 40
0.6
176
     1
 41
30.0
176
     1
 63
     7
421
 16777215
176
     1
 74
     1
176
     1
 91
        0
176
     1
 64
     7
176
     1
 65
   257
176
     1
 75
     1
176
     1
175
     1
176
     1
 42
1.0
176
     1
 92
        0
176
     1
 66
   257
176
     1
 43
1.0
176
     1
 76
     1
176
     1
 77
     6
176
     1
 78
     2
176
     1
 67
     7
176
     1
 79
     5
176
     1
170
     0
176
     1
171
     0
176
     1
290
     0
176
     1
 93
       13
176
     1
 44
0.0
176
     1
173
     0
176
     1
1001
ACAD
1000
AcDbSavedByObjectVersion
1070
     0
  0
VISUALSTYLE
  5
F2
102
{ACAD_XDICTIONARY
360
15D0
102
}
102
{ACAD_REACTORS
330
EF
102
}
330
EF
100
AcDbVisualStyle
  2
Gouraud
 70
     2
177
     2
291
     1
 71
     2
176
     1
 72
     2
176
     1
 73
     1
176
     1
 90
        2
176
     1
 40
0.6
176
     1
 41
30.0
176
     1
 63
     7
421
 16777215
176
     1
 74
     0
176
     1
 91
        0
176
     1
 64
     7
176
     1
 65
   257
176
     1
 75
     1
176
     1
175
     1
176
     1
 42
1.0
176
     1
 92
        0
176
     1
 66
     7
176
     1
 43
1.0
176
     1
 76
     1
176
     1
 77
     6
176
     1
 78
     2
176
     1
 67
     7
176
     1
 79
     5
176
     1
170
     0
176
     1
171
     0
176
     1
290
     0
176
     1
 93
       13
176
     1
 44
0.0
176
     1
173
     0
176
     1
1001
ACAD
1000
AcDbSavedByObjectVersion
1070
     0
  0
VISUALSTYLE
  5
F3
102
{ACAD_XDICTIONARY
360
15D2
102
}
102
{ACAD_REACTORS
330
EF
102
}
330
EF
100
AcDbVisualStyle
  2
GouraudWithEdges
 70
     3
177
     2
291
     1
 71
     2
176
     1
 72
     2
176
     1
 73
     1
176
     1
 90
        2
176
     1
 40
0.6
176
     1
 41
30.0
176
     1
 63
     7
421
 16777215
176
     1
 74
     1
176
     1
 91
        0
176
     1
 64
     7
176
     1
 65
   257
176
     1
 75
     1
176
     1
175
     1
176
     1
 42
1.0
176
     1
 92
        0
176
     1
 66
   257
176
     1
 43
1.0
176
     1
 76
     1
176
     1
 77
     6
176
     1
 78
     2
176
     1
 67
     7
176
     1
 79
     5
176
     1
170
     0
176
     1
171
     0
176
     1
290
     0
176
     1
 93
       13
176
     1
 44
0.0
176
     1
173
     0
176
     1
1001
ACAD
1000
AcDbSavedByObjectVersion
1070
     0
  0
VISUALSTYLE
  5
F7
102
{ACAD_XDICTIONARY
360
15DA
102
}
102
{ACAD_REACTORS
330
EF
102
}
330
EF
100
AcDbVisualStyle
  2
Hidden
 70
     6
177
     2
291
     0
 71
     1
176
     1
 72
     2
176
     1
 73
     2
176
     1
 90
        0
176
     1
 40
0.6
176
     1
 41
30.0
176
     1
 63
     7
421
 16777215
176
     1
 74
     2
176
     1
 91
        2
176
     1
 64
     7
176
     1
 65
   257
176
     1
 75
     2
176
     1
175
     1
176
     1
 42
40.0
176
     1
 92
        0
176
     1
 66
   257
176
     1
 43
1.0
176
     1
 76
     1
176
     1
 77
     6
176
     1
 78
     2
176
     1
 67
     7
176
     1
 79
     3
176
     1
170
     0
176
     1
171
     0
176
     1
290
     0
176
     1
 93
        1
176
     1
 44
0.0
176
     1
173
     0
176
     1
1001
ACAD
1000
AcDbSavedByObjectVersion
1070
     0
  0
VISUALSTYLE
  5
1E4
102
{ACAD_XDICTIONARY
360
15EC
102
}
102
{ACAD_REACTORS
330
EF
102
}
330
EF
100
AcDbVisualStyle
  2
JitterOff
 70
    20
177
     2
291
     1
 71
     2
176
     0
 72
     2
176
     0
 73
     0
176
     0
 90
        0
176
     0
 40
0.6
176
     0
 41
30.0
176
     0
 63
     7
421
 16777215
176
     0
 74
     1
176
     0
 91
        4
176
     0
 64
     7
176
     0
 65
   257
176
     0
 75
     1
176
     0
175
     1
176
     0
 42
1.0
176
     0
 92
       10
176
     2
 66
     7
176
     0
 43
1.0
176
     0
 76
     1
176
     0
 77
     6
176
     0
 78
     2
176
     0
 67
     7
176
     0
 79
     5
176
     0
170
     0
176
     0
171
     0
176
     0
290
     0
176
     0
 93
        1
176
     0
 44
0.0
176
     0
173
     0
176
     0
1001
ACAD
1000
AcDbSavedByObjectVersion
1070
     0
  0
VISUALSTYLE
  5
FD
102
{ACAD_XDICTIONARY
360
15E6
102
}
102
{ACAD_REACTORS
330
EF
102
}
330
EF
100
AcDbVisualStyle
  2
Linepattern
 70
    14
177
     2
291
     1
 71
     2
176
     1
 72
     2
176
     1
 73
     1
176
     1
 90
        0
176
     1
 40
0.6
176
     1
 41
30.0
176
     1
 63
     7
421
 16777215
176
     1
 74
     1
176
     1
 91
        4
176
     1
 64
     7
176
     1
 65
   257
176
     1
 75
     7
176
     1
175
     7
176
     1
 42
1.0
176
     1
 92
        8
176
     1
 66
     7
176
     1
 43
1.0
176
     1
 76
     1
176
     1
 77
     6
176
     1
 78
     2
176
     1
 67
     7
176
     1
 79
     5
176
     1
170
     0
176
     1
171
     0
176
     1
290
     0
176
     1
 93
        1
176
     1
 44
0.0
176
     1
173
     0
176
     1
1001
ACAD
1000
AcDbSavedByObjectVersion
1070
     0
  0
VISUALSTYLE
  5
1E5
102
{ACAD_XDICTIONARY
360
15EE
102
}
102
{ACAD_REACTORS
330
EF
102
}
330
EF
100
AcDbVisualStyle
  2
OverhangOff
 70
    21
177
     2
291
     1
 71
     2
176
     0
 72
     2
176
     0
 73
     0
176
     0
 90
        0
176
     0
 40
0.6
176
     0
 41
30.0
176
     0
 63
     7
421
 16777215
176
     0
 74
     1
176
     0
 91
        4
176
     0
 64
     7
176
     0
 65
   257
176
     0
 75
     1
176
     0
175
     1
176
     0
 42
1.0
176
     0
 92
        9
176
     2
 66
     7
176
     0
 43
1.0
176
     0
 76
     1
176
     0
 77
     6
176
     0
 78
     2
176
     0
 67
     7
176
     0
 79
     5
176
     0
170
     0
176
     0
171
     0
176
     0
290
     0
176
     0
 93
        1
176
     0
 44
0.0
176
     0
173
     0
176
     0
1001
ACAD
1000
AcDbSavedByObjectVersion
1070
     0
  0
VISUALSTYLE
  5
F9
102
{ACAD_XDICTIONARY
360
15DE
102
}
102
{ACAD_REACTORS
330
EF
102
}
330
EF
100
AcDbVisualStyle
  2
Realistic
 70
     8
177
     2
291
     0
 71
     2
176
     1
 72
     2
176
     1
 73
     0
176
     1
 90
        2
176
     1
 40
0.6
176
     1
 41
30.0
176
     1
 63
     7
421
 16777215
176
     1
 74
     0
176
     1
 91
        0
176
     1
 64
     7
176
     1
 65
   257
176
     1
 75
     1
176
     1
175
     1
176
     1
 42
1.0
176
     1
 92
        8
176
     1
 66
   257
176
     1
 43
1.0
176
     1
 76
     1
176
     1
 77
     6
176
     1
 78
     2
176
     1
 67
     7
176
     1
 79
     3
176
     1
170
     0
176
     1
171
     0
176
     1
290
     0
176
     1
 93
       13
176
     1
 44
0.0
176
     1
173
     0
176
     1
1001
ACAD
1000
AcDbSavedByObjectVersion
1070
     0
  0
VISUALSTYLE
  5
1F3
102
{ACAD_XDICTIONARY
360
15FA
102
}
102
{ACAD_REACTORS
330
EF
102
}
330
EF
100
AcDbVisualStyle
  2
Shaded
 70
    27
177
     2
291
     0
 71
     2
176
     1
 72
     2
176
     1
 73
     1
176
     1
 90
        2
176
     1
 40
0.6
176
     1
 41
30.0
176
     1
 63
     7
421
 16777215
176
     1
 74
     0
176
     1
 91
        4
176
     1
 64
     7
176
     1
 65
   257
176
     1
 75
     1
176
     1
175
     1
176
     1
 42
1.0
176
     1
 92
        8
176
     1
 66
   257
176
     1
 43
1.0
176
     1
 76
     1
176
     1
 77
     6
176
     1
 78
     2
176
     1
 67
     8
425
  7895160
176
     1
 79
     3
176
     1
170
     0
176
     1
171
     0
176
     1
290
     0
176
     1
 93
        5
176
     1
 44
0.0
176
     1
173
     0
176
     1
1001
ACAD
1000
AcDbSavedByObjectVersion
1070
     0
  0
VISUALSTYLE
  5
1F2
102
{ACAD_XDICTIONARY
360
15F8
102
}
102
{ACAD_REACTORS
330
EF
102
}
330
EF
100
AcDbVisualStyle
  2
Shaded with edges
 70
    26
177
     2
291
     0
 71
     2
176
     1
 72
     2
176
     1
 73
     1
176
     1
 90
        2
176
     1
 40
0.6
176
     1
 41
30.0
176
     1
 63
     7
421
 16777215
176
     1
 74
     1
176
     1
 91
       10
176
     1
 64
     7
176
     1
 65
   257
176
     1
 75
     2
176
     1
175
     1
176
     1
 42
1.0
176
     1
 92
        8
176
     1
 66
   257
176
     1
 43
1.0
176
     1
 76
     1
176
     1
 77
     6
176
     1
 78
     2
176
     1
 67
     7
176
     1
 79
     3
176
     1
170
     0
176
     1
171
     0
176
     1
290
     0
176
     1
 93
        5
176
     1
 44
0.0
176
     1
173
     0
176
     1
1001
ACAD
1000
AcDbSavedByObjectVersion
1070
     0
  0
VISUALSTYLE
  5
1EF
102
{ACAD_XDICTIONARY
360
15F2
102
}
102
{ACAD_REACTORS
330
EF
102
}
330
EF
100
AcDbVisualStyle
  2
Shades of Gray
 70
    23
177
     2
291
     0
 71
     2
176
     1
 72
     2
176
     1
 73
     3
176
     1
 90
        0
176
     1
 40
0.6
176
     1
 41
30.0
176
     1
 63
     7
421
 16777215
176
     1
 74
     2
176
     1
 91
        2
176
     1
 64
     7
176
     1
 65
     7
176
     1
 75
     1
176
     1
175
     1
176
     1
 42
40.0
176
     1
 92
        8
176
     1
 66
     7
176
     1
 43
1.0
176
     1
 76
     1
176
     1
 77
     6
176
     1
 78
     2
176
     1
 67
     7
176
     1
 79
     3
176
     1
170
     0
176
     1
171
     0
176
     1
290
     0
176
     1
 93
        1
176
     1
 44
0.0
176
     1
173
     0
176
     1
1001
ACAD
1000
AcDbSavedByObjectVersion
1070
     0
  0
VISUALSTYLE
  5
1F0
102
{ACAD_XDICTIONARY
360
15F4
102
}
102
{ACAD_REACTORS
330
EF
102
}
330
EF
100
AcDbVisualStyle
  2
Sketchy
 70
    24
177
     2
291
     0
 71
     1
176
     1
 72
     2
176
     1
 73
     2
176
     1
 90
        0
176
     1
 40
0.6
176
     1
 41
30.0
176
     1
 63
     7
421
 16777215
176
     1
 74
     2
176
     1
 91
        2
176
     1
 64
     7
176
     1
 65
     7
176
     1
 75
     1
176
     1
175
     1
176
     1
 42
40.0
176
     1
 92
       11
176
     1
 66
     7
176
     1
 43
1.0
176
     1
 76
     1
176
     1
 77
     6
176
     1
 78
     2
176
     1
 67
     7
176
     1
 79
     6
176
     1
170
     0
176
     1
171
     0
176
     1
290
     0
176
     1
 93
        1
176
     1
 44
0.0
176
     1
173
     0
176
     1
1001
ACAD
1000
AcDbSavedByObjectVersion
1070
     0
  0
VISUALSTYLE
  5
FC
102
{ACAD_XDICTIONARY
360
15E4
102
}
102
{ACAD_REACTORS
330
EF
102
}
330
EF
100
AcDbVisualStyle
  2
Thicken
 70
    13
177
     2
291
     1
 71
     2
176
     1
 72
     2
176
     1
 73
     1
176
     1
 90
        0
176
     1
 40
0.6
176
     1
 41
30.0
176
     1
 63
     7
421
 16777215
176
     1
 74
     1
176
     1
 91
        4
176
     1
 64
     7
176
     1
 65
   257
176
     1
 75
     1
176
     1
175
     1
176
     1
 42
1.0
176
     1
 92
       12
176
     1
 66
     7
176
     1
 43
1.0
176
     1
 76
     1
176
     1
 77
     6
176
     1
 78
     2
176
     1
 67
     7
176
     1
 79
     5
176
     1
170
     0
176
     1
171
     0
176
     1
290
     0
176
     1
 93
        1
176
     1
 44
0.0
176
     1
173
     0
176
     1
1001
ACAD
1000
AcDbSavedByObjectVersion
1070
     0
  0
VISUALSTYLE
  5
F6
102
{ACAD_XDICTIONARY
360
15D8
102
}
102
{ACAD_REACTORS
330
EF
102
}
330
EF
100
AcDbVisualStyle
  2
Wireframe
 70
     5
177
     2
291
     0
 71
     0
176
     1
 72
     2
176
     1
 73
     0
176
     1
 90
        0
176
     1
 40
0.6
176
     1
 41
30.0
176
     1
 63
     7
421
 16777215
176
     1
 74
     1
176
     1
 91
        4
176
     1
 64
     7
176
     1
 65
   257
176
     1
 75
     1
176
     1
175
     1
176
     1
 42
1.0
176
     1
 92
        0
176
     1
 66
   257
176
     1
 43
1.0
176
     1
 76
     1
176
     1
 77
     6
176
     1
 78
     2
176
     1
 67
     7
176
     1
 79
     3
176
     1
170
     0
176
     1
171
     0
176
     1
290
     0
176
     1
 93
        1
176
     1
 44
0.0
176
     1
173
     0
176
     1
1001
ACAD
1000
AcDbSavedByObjectVersion
1070
     0
  0
VISUALSTYLE
  5
1F1
102
{ACAD_XDICTIONARY
360
15F6
102
}
102
{ACAD_REACTORS
330
EF
102
}
330
EF
100
AcDbVisualStyle
  2
X-Ray
 70
    25
177
     2
291
     0
 71
     2
176
     1
 72
     2
176
     1
 73
     1
176
     1
 90
        1
176
     1
 40
0.5
176
     1
 41
30.0
176
     1
 63
     7
421
 16777215
176
     1
 74
     1
176
     1
 91
        0
176
     1
 64
     7
176
     1
 65
   257
176
     1
 75
     1
176
     1
175
     1
176
     1
 42
1.0
176
     1
 92
        8
176
     1
 66
     7
176
     1
 43
1.0
176
     1
 76
     1
176
     1
 77
     6
176
     1
 78
     2
176
     1
 67
     7
176
     1
 79
     3
176
     1
170
     0
176
     1
171
     0
176
     1
290
     0
176
     1
 93
       13
176
     1
 44
0.0
176
     1
173
     0
176
     1
1001
ACAD
1000
AcDbSavedByObjectVersion
1070
     0
  0
DICTIONARYVAR
  5
146
102
{ACAD_REACTORS
330
5E
102
}
330
5E
100
DictionaryVariables
280
     0
  1
1:1
  0
DICTIONARYVAR
  5
145
102
{ACAD_REACTORS
330
5E
102
}
330
5E
100
DictionaryVariables
280
     0
  1
STANDARD
  0
DICTIONARYVAR
  5
84
102
{ACAD_REACTORS
330
5E
102
}
330
5E
100
DictionaryVariables
280
     0
  1
STANDARD
  0
DICTIONARYVAR
  5
227
102
{ACAD_REACTORS
330
5E
102
}
330
5E
100
DictionaryVariables
280
     0
  1
Metric50
  0
DICTIONARYVAR
  5
228
102
{ACAD_REACTORS
330
5E
102
}
330
5E
100
DictionaryVariables
280
     0
  1
Metric50
  0
DICTIONARYVAR
  5
5F
102
{ACAD_REACTORS
330
5E
102
}
330
5E
100
DictionaryVariables
280
     0
  1
2
  0
DICTIONARYVAR
  5
63
102
{ACAD_REACTORS
330
5E
102
}
330
5E
100
DictionaryVariables
280
     0
  1
1
  0
DICTIONARYVAR
  5
1AE
102
{ACAD_REACTORS
330
5E
102
}
330
5E
100
DictionaryVariables
280
     0
  1
0
  0
DICTIONARYVAR
  5
1AF
102
{ACAD_REACTORS
330
5E
102
}
330
5E
100
DictionaryVariables
280
     0
  1
0
  0
DICTIONARYVAR
  5
715
102
{ACAD_REACTORS
330
5E
102
}
330
5E
100
DictionaryVariables
280
     0
  1
2
  0
DICTIONARYVAR
  5
714
102
{ACAD_REACTORS
330
5E
102
}
330
5E
100
DictionaryVariables
280
     0
  1
1
  0
DICTIONARY
  5
15FE
330
21C
100
AcDbDictionary
280
     1
281
     1
  3
ACAD_XREC_ROUNDTRIP
360
15FF
  0
DICTIONARY
  5
205
330
22
100
AcDbDictionary
280
     1
281
     1
  3
ADSK_XREC_LAYOUTTHUMBNAIL
360
6DD
  0
DICTIONARY
  5
1F9
330
ED
100
AcDbDictionary
280
     1
281
     1
  3
FBXASSET
360
1FA
  0
DICTIONARY
  5
1F7
330
EC
100
AcDbDictionary
280
     1
281
     1
  3
FBXASSET
360
1F8
  0
DICTIONARY
  5
173
330
EE
100
AcDbDictionary
280
     1
281
     1
  3
BUMPTILE
360
175
  3
DIFFUSETILE
360
174
  3
FBXASSET
360
1FB
  3
OPACITYTILE
360
176
  3
REFLECTIONTILE
360
177
  0
DICTIONARY
  5
15FC
330
21A
100
AcDbDictionary
280
     1
281
     1
  3
ACAD_XREC_ROUNDTRIP
360
15FD
  0
DICTIONARY
  5
162
330
7F
100
AcDbDictionary
280
     1
281
     1
  3
ACAD_ROUNDTRIP_2008_TABLESTYLE_CELLSTYLEMAP
360
15CA
  0
DICTIONARY
  5
15D6
330
F5
100
AcDbDictionary
280
     1
281
     1
  3
ACAD_XREC_ROUNDTRIP
360
15D7
  0
DICTIONARY
  5
15D4
330
F4
100
AcDbDictionary
280
     1
281
     1
  3
ACAD_XREC_ROUNDTRIP
360
15D5
  0
DICTIONARY
  5
15E2
330
FB
100
AcDbDictionary
280
     1
281
     1
  3
ACAD_XREC_ROUNDTRIP
360
15E3
  0
DICTIONARY
  5
15EA
330
FF
100
AcDbDictionary
280
     1
281
     1
  3
ACAD_XREC_ROUNDTRIP
360
15EB
  0
DICTIONARY
  5
15DC
330
F8
100
AcDbDictionary
280
     1
281
     1
  3
ACAD_XREC_ROUNDTRIP
360
15DD
  0
DICTIONARY
  5
15E0
330
FA
100
AcDbDictionary
280
     1
281
     1
  3
ACAD_XREC_ROUNDTRIP
360
15E1
  0
DICTIONARY
  5
15F0
330
1E6
100
AcDbDictionary
280
     1
281
     1
  3
ACAD_XREC_ROUNDTRIP
360
15F1
  0
DICTIONARY
  5
15E8
330
FE
100
AcDbDictionary
280
     1
281
     1
  3
ACAD_XREC_ROUNDTRIP
360
15E9
  0
DICTIONARY
  5
15CC
330
F0
100
AcDbDictionary
280
     1
281
     1
  3
ACAD_XREC_ROUNDTRIP
360
15CD
  0
DICTIONARY
  5
15CE
330
F1
100
AcDbDictionary
280
     1
281
     1
  3
ACAD_XREC_ROUNDTRIP
360
15CF
  0
DICTIONARY
  5
15D0
330
F2
100
AcDbDictionary
280
     1
281
     1
  3
ACAD_XREC_ROUNDTRIP
360
15D1
  0
DICTIONARY
  5
15D2
330
F3
100
AcDbDictionary
280
     1
281
     1
  3
ACAD_XREC_ROUNDTRIP
360
15D3
  0
DICTIONARY
  5
15DA
330
F7
100
AcDbDictionary
280
     1
281
     1
  3
ACAD_XREC_ROUNDTRIP
360
15DB
  0
DICTIONARY
  5
15EC
330
1E4
100
AcDbDictionary
280
     1
281
     1
  3
ACAD_XREC_ROUNDTRIP
360
15ED
  0
DICTIONARY
  5
15E6
330
FD
100
AcDbDictionary
280
     1
281
     1
  3
ACAD_XREC_ROUNDTRIP
360
15E7
  0
DICTIONARY
  5
15EE
330
1E5
100
AcDbDictionary
280
     1
281
     1
  3
ACAD_XREC_ROUNDTRIP
360
15EF
  0
DICTIONARY
  5
15DE
330
F9
100
AcDbDictionary
280
     1
281
     1
  3
ACAD_XREC_ROUNDTRIP
360
15DF
  0
DICTIONARY
  5
15FA
330
1F3
100
AcDbDictionary
280
     1
281
     1
  3
ACAD_XREC_ROUNDTRIP
360
15FB
  0
DICTIONARY
  5
15F8
330
1F2
100
AcDbDictionary
280
     1
281
     1
  3
ACAD_XREC_ROUNDTRIP
360
15F9
  0
DICTIONARY
  5
15F2
330
1EF
100
AcDbDictionary
280
     1
281
     1
  3
ACAD_XREC_ROUNDTRIP
360
15F3
  0
DICTIONARY
  5
15F4
330
1F0
100
AcDbDictionary
280
     1
281
     1
  3
ACAD_XREC_ROUNDTRIP
360
15F5
  0
DICTIONARY
  5
15E4
330
FC
100
AcDbDictionary
280
     1
281
     1
  3
ACAD_XREC_ROUNDTRIP
360
15E5
  0
DICTIONARY
  5
15D8
330
F6
100
AcDbDictionary
280
     1
281
     1
  3
ACAD_XREC_ROUNDTRIP
360
15D9
  0
DICTIONARY
  5
15F6
330
1F1
100
AcDbDictionary
280
     1
281
     1
  3
ACAD_XREC_ROUNDTRIP
360
15F7
  0
XRECORD
  5
15FF
102
{ACAD_REACTORS
330
15FE
102
}
330
15FE
100
AcDbXrecord
280
     1
102
DISPLAYNAME
  1
Metric50
102
FLAGS
 90
        0
  0
XRECORD
  5
6DD
102
{ACAD_REACTORS
330
205
102
}
330
205
100
AcDbXrecord
280
     1
310
28000000000100006D0000000100080000000000006D0000010000000100000000010000000000003028210000000052C8C8C8FF000000FF000000FF000000FF000000FF000000FF000000FF000000FF000000FF330000FF660000FF990000FFCC0000FFFF0000FF003300FF333300FF663300FF993300FFCC3300FFFF3300
310
FF006600FF336600FF666600FF996600FFCC6600FFFF6600FF009900FF339900FF669900FF999900FFCC9900FFFF9900FF00CC00FF33CC00FF66CC00FF99CC00FFCCCC00FFFFCC00FF00FF00FF33FF00FF66FF00FF99FF00FFCCFF00FFFFFF00FF000033FF330033FF660033FF990033FFCC0033FFFF0033FF003333FF3333
310
33FF663333FF993333FFCC3333FFFF3333FF006633FF336633FF666633FF996633FFCC6633FFFF6633FF009933FF339933FF669933FF999933FFCC9933FFFF9933FF00CC33FF33CC33FF66CC33FF99CC33FFCCCC33FFFFCC33FF00FF33FF33FF33FF66FF33FF99FF33FFCCFF33FFFFFF33FF000066FF330066FF660066FF99
310
0066FFCC0066FFFF0066FF003366FF333366FF663366FF993366FFCC3366FFFF3366FF006666FF336666FF666666FF996666FFCC6666FFFF6666FF009966FF339966FF669966FF999966FFCC9966FFFF9966FF00CC66FF33CC66FF66CC66FF99CC66FFCCCC66FFFFCC66FF00FF66FF33FF66FF66FF66FF99FF66FFCCFF66FF
310
FFFF66FF000099FF330099FF660099FF990099FFCC0099FFFF0099FF003399FF333399FF663399FF993399FFCC3399FFFF3399FF006699FF336699FF666699FF996699FFCC6699FFFF6699FF009999FF339999FF669999FF999999FFCC9999FFFF9999FF00CC99FF33CC99FF66CC99FF99CC99FFCCCC99FFFFCC99FF00FF99
310
FF33FF99FF66FF99FF99FF99FFCCFF99FFFFFF99FF0000CCFF3300CCFF6600CCFF9900CCFFCC00CCFFFF00CCFF0033CCFF3333CCFF6633CCFF9933CCFFCC33CCFFFF33CCFF0066CCFF3366CCFF6666CCFF9966CCFFCC66CCFFFF66CCFF0099CCFF3399CCFF6699CCFF9999CCFFCC99CCFFFF99CCFF00CCCCFF33CCCCFF66CC
310
CCFF99CCCCFFCCCCCCFFFFCCCCFF00FFCCFF33FFCCFF66FFCCFF99FFCCFFCCFFCCFFFFFFCCFF0000FFFF3300FFFF6600FFFF9900FFFFCC00FFFFFF00FFFF0033FFFF3333FFFF6633FFFF9933FFFFCC33FFFFFF33FFFF0066FFFF3366FFFF6666FFFF9966FFFFCC66FFFFFF66FFFF0099FFFF3399FFFF6699FFFF9999FFFFCC
310
99FFFFFF99FFFF00CCFFFF33CCFFFF66CCFFFF99CCFFFFCCCCFFFFFFCCFFFF00FFFFFF33FFFFFF66FFFFFF99FFFFFFCCFFFFFFFFFFFFFF000000FF0D0D0DFF1A1A1AFF282828FF353535FF434343FF505050FF5D5D5DFF6B6B6BFF787878FF868686FF939393FFA1A1A1FFAEAEAEFFBBBBBBFFC9C9C9FFD6D6D6FFE4E4E4FF
310
F1F1F1FFFFFFFFFF000000FF000000FF000000FF000000FF000000FF000000FF000000FF000000FF000000FF000000FF00000000000000000000000000000000000000000000000000000000000000000000000000000000000000000000000000000000000000000000000000000000000000000000000000000000000000
310
000000F5000000F5F500F5F5F5F5F5F5000000F50000F5F5F50000000000F5F5F5F500F5F5F5F5F5F5F5F5F5F5F5F5F5F5F5F5F5F5F5F500F5F5F5F5F5F5F5F5F5F5F5F5F5F5000000000000F5F5F500F500000000F5F5F5F5F500F5F5F5000000F50000000000000000000000000000000000000000000000000000000000
310
00000000000000000000000000000000000000000000000000000000000000000000000000000000000000000000000000000000000000000000000000000000000000000000000000000000000000000000000000000000000000000000000000000000000000000000000000000000000000000000000000000000000000
310
0000000000F5000000F5F500F5F5F5F5F5F5000000F50000F5F5F50000000000F5F5F5F500F5F5F5F5F5F5F5F5F5F5F5F5F5F5F5F5F5F5F5F500F5F5F5F5F5F5F5F5F5F5F5F5F5F5000000000000F5F5F500F500000000F5F5F5F5F500F5F5F5000000F5000000000000000000000000000000000000000000000000000000
310
00000000000000000000000000000000000000000000000000000000000000000000000000000000000000000000000000000000000000000000000000000000000000000000000000000000000000000000000000000000000000000000000000000000000000000000000000000000000000000000000000000000000000
310
00000000000000F5000000F5F500F5F5F5F5F5F5000000F50000F5F5F50000000000F5F5F5F500F5F5F5F5F5F5F5F5F5F5F5F5F5F5F5F5F5F5F5F500F5F5F5F5F5F5F5F5F5F5F5F5F5F5000000000000F5F5F500F500000000F5F5F5F5F500F5F5F5000000F500000000000000000000000000000000000000000000000000
310
00000000000000000000000000000000000000000000000000000000000000000000000000000000000000000000000000000000000000000000000000000000000000000000000000000000000000000000000000000000000000000000000000000000000000000000000000000000000000000000000000000000000000
310
000000000000000000F5F50000F5F500F5F5F5F5F5F500F5F5F50000F5F5F50000000000F5F5F5F500F5F5F5F5F5F5F5F5F5F5F5F5F5F5F5F5F5F5F5F500F5F5F5F5F5F5F5F5F5F5F5F5F5F5000000000000F5F5F500F5F5F50000F5F5F5F5F500F5F5F500F5F5F50000000000000000000000000000000000000000000000
310
00000000000000000000000000000000000000000000000000000000000000000000000000000000000000000000000000000000000000000000000000000000000000000000000000000000000000000000000000000000000000000000000000000000000000000000000000000000000000000000000000000000000000
310
000000000000000000000000F50000F5F500F5F5F5F5F5F500F500000000F500000000000000000000000000000000000000000000000000000000000000000000000000000000000000000000000000000000000000F5000000F50000F5F5F5F5F500F5F5F500F50000000000000000000000000000000000000000000000
310
00000000000000000000000000000000000000000000000000000000000000000000000000000000000000000000000000000000000000000000000000000000000000000000000000000000000000000000000000000000000000000000000000000000000000000000000000000000000000000000000000000000000000
310
0000000000000000000000000000F50000F5F500F5F5F5F5F5F500F500000000F500000000000000000000000000000000000000000000000000000000000000000000000000000000000000000000000000000000000000F5000000F50000F5F5F5F5F500F5F5F500F5000000000000000000000000000000000000000000
310
00000000000000000000000000000000000000000000000000000000000000000000000000000000000000000000000000000000000000000000000000000000000000000000000000000000000000000000000000000000000000000000000000000000000000000000000000000000000000000000000000000000000000
310
00000000000000000000000000000000F50000F5F500F5F5F5F5F5F500F500000000F500000000000000000000000000000000000000000000000000000000000000000000000000000000000000000000000000000000000000F5000000F50000F5F5F5F5F500F5F5F500F500000000000000000000000000000000000000
310
00000000000000000000000000000000000000000000000000000000000000000000000000000000000000000000000000000000000000000000000000000000000000000000000000000000000000000000000000000000000000000000000000000000000000000000000000000000000000000000000000000000000000
310
000000000000000000000000000000000000F50000F5F500F5F5F5F5F5F500F500000000F500000000000000000000000000000000000000000000000000000000000000000000000000000000000000000000000000000000000000F5000000F50000F5F5F5F5F500F5F5F500F50000000000000000000000000000000000
310
00000000000000000000000000000000000000000000000000000000000000000000000000000000000000000000000000000000000000000000000000000000000000000000000000000000000000000000000000000000000000000000000000000000000000000000000000000000000000000000000000000000000000
310
0000000000000000000000000000000000000000F50000F5F500F5F5F5F5F5F500F500000000F500000000000000000000000000000000000000000000000000000000000000000000000000000000000000000000000000000000000000F5000000F50000F5F5F5F5F500F5F5F500F5000000000000000000000000000000
310
00000000000000000000000000000000000000000000000000000000000000000000000000000000000000000000000000000000000000000000000000000000000000000000000000000000000000000000000000000000000000000000000000000000000000000000000000000000000000000000000000000000000000
310
00000000000000000000000000000000000000000000F50000F5F500F5F5F5F5F5F500F500000000F500000000000000000000000000000000000000000000000000000000000000000000000000000000000000000000000000000000000000F5000000F50000F5F5F5F5F500F5F5F500F500000000000000000000000000
310
00000000000000000000000000000000000000000000000000000000000000000000000000000000000000000000000000000000000000000000000000000000000000000000000000000000000000000000000000000000000000000000000000000000000000000000000000000000000000000000000000000000000000
310
0000000000000000000000000000000000000000000000F5F50000F5F500F5F5F5F5F5F500F5F5F50000F5F5F50000000000F5F5F5F500F5F5F5F5F5F5F5F5F5F5F5F5F5F5F5F5F5F5F5F500F5F5F5F5F5F5F5F5F5F5F5F5F5F5000000000000F5F5F500F5F5F50000F5F5F5F5F500F5F5F500F5F5F5000000000000000000
310
00000000000000000000000000000000000000000000000000000000000000000000000000000000000000000000000000000000000000000000000000000000000000000000000000000000000000000000000000000000000000000000000000000000000000000000000000000000000000000000000000000000000000
310
00000000000000000000000000000000000000000000000000F5000000F5F500F5F5F5F5F5F5000000F50000F5F5F50000000000F5F5F5F500F5F5F5F5F5F5F5F5F5F5F5F5F5F5F5F5F5F5F5F500F5F5F5F5F5F5F5F5F5F5F5F5F5F5000000000000F5F5F500F500000000F5F5F5F5F500F5F5F5000000F500000000000000
310
00000000000000000000000000000000000000000000000000000000000000000000000000000000000000000000000000000000000000000000000000000000000000000000000000000000000000000000000000000000000000000000000000000000000000000000000000000000000000000000000000000000000000
310
000000000000000000000000000000000000000000000000000000F5000000F5F500F5F5F5F5F5F5000000F50000F5F5F50000000000F5F5F5F500F5F5F5F5F5F5F5F5F5F5F5F5F5F5F5F5F5F5F5F500F5F5F5F5F5F5F5F5F5F5F5F5F5F5000000000000F5F5F500F500000000F5F5F5F5F500F5F5F5000000F50000000000
310
00000000000000000000000000000000000000000000000000000000000000000000000000000000000000000000000000000000000000000000000000000000000000000000000000000000000000000000000000000000000000000000000000000000000000000000000000000000000000000000000000000000000000
310
0000000000000000000000000000000000000000000000000000000000F5000000F5F500F5F5F5F5F5F5000000F50000F5F5F50000000000F5F5F5F500F5F5F5F5F5F5F5F5F5F5F5F5F5F5F5F5F5F5F5F500F5F5F5F5F5F5F5F5F5F5F5F5F5F5000000000000F5F5F500F500000000F5F5F5F5F500F5F5F5000000F5000000
310
00000000000000000000000000000000000000000000000000000000000000000000000000000000000000000000000000000000000000000000000000000000000000000000000000000000000000000000000000000000000000000000000000000000000000000000000000000000000000000000000000000000000000
310
00000000000000000000000000000000000000000000000000000000000000F5000000F5F500F5F5F5F5F5F5000000F50000F5F5F50000000000F5F5F5F500F5F5F5F5F5F5F5F5F5F5F5F5F5F5F5F5F5F5F5F500F5F5F5F5F5F5F5F5F5F5F5F5F5F5000000000000F5F5F500F500000000F5F5F5F5F500F5F5F5000000F500
310
00000000000000000000000000000000000000000000000000000000000000000000000000000000000000000000000000000000000000000000000000000000000000000000000000000000000000000000000000000000000000000000000000000000000000000000000000000000000000000000000000000000000000
310
000000000000000000000000000000000000000000000000000000000000000000F5000000F5F500F5F5F5F5F5F5000000F50000F5F5F50000000000F5F5F5F500F5F5F5F5F5F5F5F5F5F5F5F5F5F5F5F5F5F5F5F500F5F5F5F5F5F5F5F5F5F5F5F5F5F5000000000000F5F5F500F500000000F5F5F5F5F500F5F5F5000000
310
F5000000000000000000000000000000000000000000000000000000000000000000000000000000000000000000000000000000000000000000000000000000000000000000000000000000000000000000000000000000000000000000000000000000000000000000000000000000000000000000000000000000000000
310
0000000000000000000000000000000000000000000000000000000000000000000000F5000000F5F500F5F5F5F5F5F5000000F50000F5F5F50000000000F5F5F5F500F5F5F5F5F5F5F5F5F5F5F5F5F5F5F5F5F5F5F5F500F5F5F5F5F5F5F5F5F5F5F5F5F5F5000000000000F5F5F500F500000000F5F5F5F5F500F5F5F500
310
0000F500000000000000000000000000000000000000000000000000000000000000000000000000000000000000000000000000000000000000000000000000000000000000000000000000000000000000000000000000000000000000000000000000000000000000000000000000000000000000000000000000000000
310
00000000000000000000000000000000000000000000000000000000000000000000000000F5000000F5F500F5F5F5F5F5F5000000F50000F5F5F50000000000F5F5F5F500F5F5F5F5F5F5F5F5F5F5F5F5F5F5F5F5F5F5F5F500F5F5F5F5F5F5F5F5F5F5F5F5F5F5000000000000F5F5F500F500000000F5F5F5F5F500F5F5
310
F5000000F50000000000000000000000000000000000000000000000000000000000000000000000000000000000000000000000000000000000000000000000000000000000000000000000000000000000000000000000000000000000000000000000000000000000000000000000000000000000000000000000000000
310
000000000000000000000000000000000000000000000000000000000000000000000000000000F5F50000F5F500F5F5F5F5F5F500F5F5F50000F5F5F50000000000F5F5F5F500F5F5F5F5F5F5F5F5F5F5F5F5F5F5F5F5F5F5F5F500F5F5F5F5F5F5F5F5F5F5F5F5F5F5000000000000F5F5F500F5F5F50000F5F5F5F5F5F5
310
F5F5F500F5F5F5000000000000000000000000000000000000000000000000000000000000000000000000000000000000000000000000000000000000000000000000000000000000000000000000000000000000000000000000000000000000000000000000000000000000000000000000000000000000000000000000
310
000000000000000000000000000000000000000000000000000000000000000000000000000000000000F5000000000000000000000000F500000000F500000000000000F5F5F5F500F5F5F5F5F5F5F5F5F5F5F5F5F5F5F5F5F5F5F5F500F5F5F5F5F5F5F5F5F5F5F5F5F5F50000000000000000F5000000F5000000000000
310
000000000000F5000000000000000000000000000000000000000000000000000000000000000000000000000000000000000000000000000000000000000000000000000000000000000000000000000000000000000000000000000000000000000000000000000000000000000000000000000000000000000000000000
310
0000000000000000000000000000000000000000000000000000000000000000000000000000000000000000F5000000000000000000000000F500000000F50000000000F500000000000000000000000000000000000000000000000000000000000000000000000000000000000000F50000000000F5000000F500000000
310
0000000000000000F500000000000000000000000000000000000000000000000000000000000000000000000000000000000000000000000000000000000000000000000000000000000000000000000000000000000000000000000000000000000000000000000000000000000000000000000000000000000000000000
310
00000000000000000000000000000000000000000000000000000000000000000000000000000000000000000000F5000000000000000000000000F500000000F500000000F5F500000000000000000000000000000000000000000000000000000000000000000000000000000000000000F5F500000000F5000000F50000
310
00000000000000000000F50000000000000000000000000000000000000000000000000000000000000000000000000000000000000000000000000000000000000000000000000000000000000000000000000000000000000000000000000000000000000000000000000000000000000000000000000000000000000000
310
000000000000000000000000000000000000000000000000000000000000000000000000000000000000000000000000F5000000000000000000000000F500000000F50000000000F500000000000000000000000000000000000000000000000000000000000000000000000000000000000000F50000000000F5000000F5
310
000000000000000000000000F5000000000000000000000000000000000000000000000000000000000000000000000000000000000000000000000000000000000000000000000000000000000000000000000000000000000000000000000000000000000000000000000000000000000000000000000000000000000000
310
0000000000000000000000000000000000000000000000000000000000000000000000000000000000000000000000000000F5000000000000000000000000F500000000F500000000000000000000000000000000000000000000000000000000000000000000000000000000000000000000000000000000000000F50000
310
00F5000000000000000000000000F500000000000000000000000000000000000000000000000000000000000000000000000000000000000000000000000000000000000000000000000000000000000000000000000000000000000000000000000000000000000000000000000000000000000000000000000000000000
310
00000000000000000000000000000000000000000000000000000000000000000000000000000000000000000000000000000000F5000000000000000000000000F500000000F500000000000000000000000000000000000000000000000000000000000000000000000000000000000000000000000000000000000000F5
310
000000F5000000000000000000000000F50000000000000000000000000000000000000000000000000000000000000000000000000000000000000000000000000000000000000000000000000000000000000000000000000000000000000000000000000000000000000000000000000000000000000000000000000000
310
000000000000000000000000000000000000000000000000000000000000000000000000000000000000000000000000000000000000F50000000000F5F5F500000000F500000000F500000000000000F5F5F5F5F5F5F5F5F5F5F5F5000000F5F5F5F5F5F5F5F5F5F5F5000000F5F5F5F5F5F5F5F5F5F5F500000000000000
310
00F5000000F50000000000F5F5F500000000F5000000000000000000000000000000000000000000000000000000000000000000000000000000000000000000000000000000000000000000000000000000000000000000000000000000000000000000000000000000000000000000000000000000000000000000000000
310
0000000000000000000000000000000000000000000000000000000000000000000000000000000000000000000000000000000000000000F50000000000F5F5F500000000F500000000F500000000000000F5F5F5F5F5F5F5F5F5F5F5F5000000F5F5F5F5F5F5F5F5F5F5F5000000F5F5F5F5F5F5F5F5F5F5F50000000000
310
000000F5000000F50000000000F5F5F500000000F500000000000000000000000000000000000000000000000000000000000000000000000000000000000000000000000000000000000000000000000000000000000000000000000000000000000000000000000000000000000000000000000000000000000000000000
310
00000000000000000000000000000000000000000000000000000000000000000000000000000000000000000000000000000000000000000000F5000000000000000000000000F500000000F50000000000000000000000000000000000000000000000000000000000000000000000000000000000000000000000000000
310
0000000000F5000000F5000000000000000000000000F50000000000000000000000000000000000000000000000000000000000000000000000000000000000000000000000000000000000000000000000000000000000000000000000000000000000000000000000000000000000000000000000000000000000000000
310
000000000000000000000000000000000000000000000000000000000000000000000000000000000000000000000000000000000000000000000000F5F5F5F5F5F5F5F5F5F5F5F5F5F500000000F5F5F5F5F5F5F5F5F5F5F5F5F5F5F5F5F5F5F5F5F5F5F5F5F5F5F5F5F5F5F5F5F5F5F5F5F5F5F5F5F5F5F5F5F5F5F5F5F5
310
F5F5F5F5F5F5F5F5000000F5F5F5F5F5F5F5F5F5F5F5F5F5F5000000000000000000000000000000000000000000000000000000000000000000000000000000000000000000000000000000000000000000000000000000000000000000000000000000000000000000000000000000000000000000000000000000000000
310
00000000000000000000000000000000000000000000000000000000000000000000000000000000000000000000000000000000000000000000000000000000000000000000000000000000000000000000000000000000000000000000000000000000000000000000000000000000000000000000000000000000000000
310
00000000000000000000000000000000000000000000000000000000000000000000000000000000000000000000000000000000000000000000000000000000000000000000000000000000000000000000000000000000000000000000000000000000000000000000000000000000000000000000000000000000000000
310
000000000000000000000000000000000000000000000000000000000000000000000000000000000000000000000000000000000000000000000000000000000000000000000000000000000000000000000000000000000000F5F5F5F5F5F5F5F5F5F5F5F5000000F5F5F5F5F5F5F5F5F5F5F5000000F5F5F5F5F5F5F5F5
310
F5F5F500000000000000000000000000000000000000000000000000000000000000000000000000000000000000000000000000000000000000000000000000000000000000000000000000000000000000000000000000000000000000000000000000000000000000000000000000000000000000000000000000000000
310
0000000000000000000000000000000000000000000000000000000000000000000000000000000000000000000000000000000000000000000000000000000000000000000000000000000000000000000000000000000000000000F500000000000000000000F5000000F5000000000000000000F5000000F50000000000
310
00000000F50000000000000000000000000000000000000000000000000000000000000000000000000000000000000000000000000000000000000000000000000000000000000000000000000000000000000000000000000000000000000000000000000000000000000000000000000000000000000000000000000000
310
00000000000000000000000000000000000000000000000000000000000000000000000000000000000000000000000000000000000000000000000000000000000000000000000000000000000000000000000000000000F5F5F5F5F5F5F500000000000000000000F5F5F5F5F5000000000000000000F5F5F5F5F5000000
310
000000000000F5F5F5F5F5F5F5F50000000000000000000000000000000000000000000000000000000000000000000000000000000000000000000000000000000000000000000000000000000000000000000000000000000000000000000000000000000000000000000000000000000000000000000000000000000000
310
000000000000000000000000000000000000000000000000000000000000000000000000000000000000000000000000000000000000000000000000000000000000000000000000000000000000000000000000000000000000F50000000000000000000000F5F5F5F5F5F5F5F5F5F5F5F500000000000000000000000000
310
000000000000000000000000000000F5000000000000000000000000000000000000000000000000000000000000000000000000000000000000000000000000000000000000000000000000000000000000000000000000000000000000000000000000000000000000000000000000000000000000000000000000000000
310
0000000000000000000000000000000000000000000000000000000000000000000000000000000000000000000000000000000000000000000000000000000000000000000000000000000000000000000000000000000000000000F50000000000000000000000F5F5F5F5F5F5F5F5F5F5F5F50000000000000000000000
310
0000000000000000000000000000000000F500000000000000000000000000000000000000000000000000000000000000000000000000000000000000000000000000000000000000000000000000000000000000000000000000000000000000000000000000000000000000000000000000000000000000000000000000
310
00000000000000000000000000000000000000000000000000000000000000000000000000000000000000000000000000000000000000000000000000000000000000000000000000000000000000000000000000000000000000000000F5F5F5F5F5F5F5F5F5F5F5F5F5F5F5F5F5F5F5F5F5F5F5F5F5F5F5F5F5F5F5F5F5
310
F5F5F5F5F5F5F5F5F5F5F5F5F5F5F500000000F50000000000000000000000000000000000000000000000000000000000000000000000000000000000000000000000000000000000000000000000000000000000000000000000000000000000000000000000000000000000000000000000000000000000000000000000
310
000000000000000000000000000000000000000000000000000000000000000000000000000000000000000000000000000000000000000000000000000000000000000000000000000000000000000000000000000000000000000000000000F5F5F5F5F5F5F50000000000F5F5F5F5F5F5F5F5F50000000000F5F5F50000
310
000000F5F5F50000000000F5F5000000F500000000F5000000000000000000000000000000000000000000000000000000000000000000000000000000000000000000000000000000000000000000000000000000000000000000000000000000000000000000000000000000000000000000000000000000000000000000
310
000000000000000000000000000000000000000000000000000000000000000000000000000000000000000000000000000000000000000000000000000000000000000000000000000000000000000000000000000000000000000000000000F5F5F50000000000F50000000000F500000000000000F50000000000F500F5
310
0000000000F500F5F5F5F5F5F5F5F5000000F500000000F5F5F50000000000000000000000000000000000000000000000000000000000000000000000000000000000000000000000000000000000000000000000000000000000000000000000000000000000000000000000000000000000000000000000000000000000
310
0000000000000000000000000000000000000000000000000000000000000000000000000000000000000000000000000000000000000000000000000000000000000000000000000000000000000000000000000000000000000000000000000000F500000000000000F50000000000F500000000000000F50000000000F5
310
00F50000000000F50000000000000000F5000000F5000000000000F5000000000000000000000000000000000000000000000000000000000000000000000000000000000000000000000000000000000000000000000000000000000000000000000000000000000000000000000000000000000000000000000000000000
310
00000000000000000000000000000000000000000000000000000000000000000000000000000000000000000000000000000000000000000000000000000000000000000000000000000000000000000000000000000000000000000000000000000000F5F5F50000000000F50000000000F500000000000000F500000000
310
00F500F50000000000F50000000000000000F5F5F5F5F500000000F5F5F500000000000000000000000000000000000000000000000000000000000000000000000000000000000000000000000000000000000000000000000000000000000000000000000000000000000000000000000000000000000000000000000000
310
0000000000000000000000000000000000000000000000000000000000000000000000000000000000000000000000000000000000000000000000000000000000000000000000000000000000000000000000000000000000000000000000000000000000000000F50000000000F5F5F5F5F5F5F500F5F5F5F50000F50000
310
000000F500F50000000000F5000000F5F5F50000000000000000000000F500000000000000000000000000000000000000000000000000000000000000000000000000000000000000000000000000000000000000000000000000000000000000000000000000000000000000000000000000000000000000000000000000
310
00000000000000000000000000000000000000000000000000000000000000000000000000000000000000000000000000000000000000000000000000000000000000000000000000000000000000000000000000000000000000000000000000000000000000000000F500000000000000000000000000F5F500F50000F5
310
F5F5F5F5F5F500F5F5F5F5F5F5F5000000F500F50000000000000000000000F50000000000000000000000000000000000000000000000000000000000000000000000000000000000000000000000000000000000000000000000000000000000000000000000000000000000000000000000000000000000000000000000
310
000000000000000000000000000000000000000000000000000000000000000000000000000000000000000000000000000000000000000000000000000000000000000000000000000000000000000000000000000000000000000000000000000000000000000000000000F50000000000000000000000000000F5F50000
310
00000000000000000000000000000000000000F5F5F50000000000000000000000F5000000000000000000000000000000000000000000000000000000000000000000000000000000000000000000000000000000000000000000000000000000000000000000000000000000000000000000000000000000000000000000
310
0000000000000000000000000000000000000000000000000000000000000000000000000000000000000000000000000000000000000000000000000000000000000000000000000000000000000000000000000000000000000000000000000000000000000000000000000000F500000000000000000000000000000000
310
0000000000000000000000000000000000000000000000000000000000000000000000F500000000000000000000000000000000000000000000000000000000000000000000000000000000000000000000000000000000000000000000000000000000000000000000000000000000000000000000000000000000000000
310
00000000000000000000000000000000000000000000000000000000000000000000000000000000000000000000000000000000000000000000000000000000000000000000000000000000000000000000000000000000000000000000000000000000000000000000000000000000F5F5F5F5F5F5F50000000000000000
310
0000F5F5F5F5F5000000000000000000F5F5F5F5F5000000000000000000F5F5F5F5F5F5F5F50000000000000000000000000000000000000000000000000000000000000000000000000000000000000000000000000000000000000000000000000000000000000000000000000000000000000000000000000000000000
310
000000000000000000000000000000000000000000000000000000000000000000000000000000000000000000000000000000000000000000000000000000000000000000000000000000000000000000000000000000000000000000000000000000000000000000000000000000000000000000000000F5000000000000
310
00000000F5000000F5000000000000000000F5000000F5000000000000000000F500000000000000000000000000000000000000000000000000000000000000000000000000000000000000000000000000000000000000000000000000000000000000000000000000000000000000000000000000000000000000000000
310
0000000000000000000000000000000000000000000000000000000000000000000000000000000000000000000000000000000000000000000000000000000000000000000000000000000000000000000000000000000000000000000000000000000000000000000000000000000000000000000000000000F5F5F5F5F5
310
F5F5F5F5F5F5F5000000F5F5F5F5F5F5F5F5F5F5F5000000F5F5F5F5F5F5F5F5F5F5F50000000000000000000000000000000000000000000000000000000000000000000000000000000000000000000000000000000000000000000000000000000000000000000000000000000000000000000000000000000000000000
310
00000000000000000000000000000000000000000000000000000000000000000000000000000000000000000000000000000000000000000000000000000000000000000000000000000000000000000000000000000000000000000000000000000000000000000000000000000000000000000000000000000000000000
310
00000000000000000000000000000000000000000000000000000000000000000000000000000000000000000000000000000000000000000000000000000000000000000000000000000000000000000000000000000000000000000000000000000000000000000000000000000000000000000000000000000000000000
310
00000000000000000000000000000000000000000000000000000000000000000000000000000000000000000000000000000000000000000000000000000000000000000000000000000000000000000000000000000000000000000000000000000000000000000000000000000000000000000000F5F5F5F5F5F5F5F5F5
310
F5F5F5F5F5F5F5F5F5F5F5F5F5F5F5F5F5F5F5F5F5F5F5F5F5F5F5F5F5F5F5F5F5F5F5F5F5F5F5F5F5F5F5F5F5F5F5F500000000000000000000000000000000000000000000000000000000000000000000000000000000000000000000000000000000000000000000000000000000000000000000000000000000000000
310
000000000000000000000000000000000000000000000000000000000000000000000000000000000000000000000000000000000000000000000000000000000000000000000000000000000000000000000000000000000000000000000000000000000000000000000000000000000000000000000000F5000000000000
310
00F5F5F5F5F5F5F5F5F5F5F5F5000000F5F5F5F5F5F5F5F5F5F5F5000000F5F5F5F5F5F5F5F5F5F5F50000000000000000F50000000000000000000000000000000000000000000000000000000000000000000000000000000000000000000000000000000000000000000000000000000000000000000000000000000000
310
0000000000000000000000000000000000000000000000000000000000000000000000000000000000000000000000000000000000000000000000000000000000000000000000000000000000000000000000000000000000000000000000000000000000000000000000000000000000000000000000000000F500000000
310
000000F5F5F5F5F5F5F5F5F5F5F5F5000000F5F5F5F5F5F5F5F5F5F5F5000000F5F5F5F5F5F5F5F5F5F5F50000000000000000F5000000000000000000000000000000000000000000000000000000000000000000000000000000000000000000000000000000000000000000000000000000000000000000000000000000
310
00000000000000000000000000000000000000000000000000000000000000000000000000000000000000000000000000000000000000000000000000000000000000000000000000000000000000000000000000000000000000000000000000000000000000000000000000000000000000000000000000000000F50000
310
0000000000000000000000000000000000000000000000000000000000000000000000000000000000000000000000000000000000F500000000000000000000000000000000000000000000000000000000000000000000000000000000000000000000000000000000000000000000000000000000000000000000000000
310
000000000000000000000000000000000000000000000000000000000000000000000000000000000000000000000000000000000000000000000000000000000000000000000000000000000000000000000000000000000000000000000000000000000000000000000000000000000000000000000000000000000000F5
310
00000000000000000000000000000000000000000000F5F5F5F5F5F5000000000000000000000000000000000000000000000000000000F50000000000000000000000000000000000000000000000000000000000000000000000000000000000000000000000000000000000000000000000000000000000000000000000
310
00000000000000000000000000000000000000000000000000000000000000000000000000000000000000000000000000000000000000000000000000000000000000000000000000000000000000000000000000000000000000000000000000000000000000000000000000000000000000000000000000000000000000
310
00F500000000000000000000000000000000000000000000F500000000F5000000000000000000000000000000000000000000000000000000F5000000000000000000000000000000000000000000000000000000000000000000000000000000000000000000000000000000000000000000000000000000000000000000
310
00000000000000000000000000000000000000000000000000000000000000000000000000000000000000000000000000000000000000000000000000000000000000000000000000000000000000000000000000000000000000000000000000000000000000000000000000000000000000000000000000000000000000
310
000000F5000000000000000000000000000000000000F5F50000F5F5F5F5F5F50000000000000000000000000000000000F5000000000000000000F500000000000000000000000000000000000000000000000000000000000000000000000000000000000000000000000000000000000000000000000000000000000000
310
00000000000000000000000000000000000000000000000000000000000000000000000000000000000000000000000000000000000000000000000000000000000000000000000000000000000000000000000000000000000000000000000000000000000000000000000000000000000000000000000000000000000000
310
0000000000F500000000F5F5000000000000000000000000F5F500000000F5F5000000000000000000000000000000F5F50000F5F50000F5F500000000F50000000000000000000000000000000000000000000000000000000000000000000000000000000000000000000000000000000000000000000000000000000000
310
00000000000000000000000000000000000000000000000000000000000000000000000000000000000000000000000000000000000000000000000000000000000000000000000000000000000000000000000000000000000000000000000000000000000000000000000000000000000000000000000000000000000000
310
00000000000000F500000000F5F5000000000000000000000000F5F500000000F5F5000000000000000000000000000000F5F50000F5000000F5F500000000F5000000000000000000000000000000000000000000000000000000000000000000000000000000000000000000000000000000000000000000000000000000
310
00000000000000000000000000000000000000000000000000000000000000000000000000000000000000000000000000000000000000000000000000000000000000000000000000000000000000000000000000000000000000000000000000000000000000000000000000000000000000000000000000000000000000
310
000000000000000000F5F5F5000000000000000000000000000000000000000000000000F5F500F5F5F5F5F5F5F5F5F5F50000000000000000000000000000F5F5F500000000000000000000000000000000000000000000000000000000000000000000000000000000000000000000000000000000000000000000000000
310
00000000000000000000000000000000000000000000000000000000000000000000000000000000000000000000000000000000000000000000000000000000000000000000000000000000000000000000000000000000000000000000000000000000000000000000000000000000000000000000000000000000000000
310
0000000000000000000000F5F5F5000000000000000000000000000000000000000000000000F5F5F500F5F5F500F5F500F5F5F5F5000000000000000000000000F5F5F50000000000000000000000000000000000000000000000000000000000000000000000000000000000000000000000000000000000000000000000
310
00000000000000000000000000000000000000000000000000000000000000000000000000000000000000000000000000000000000000000000000000000000000000000000000000000000000000000000000000000000000000000000000000000000000000000000000000000000000000000000000000000000000000
310
00000000000000000000000000F5F5F5000000000000000000000000000000000000000000000000F5F5F5F500F5F5F500F5F500F5F5F5000000000000000000000000F5F5F5000000000000000000000000000000000000000000000000000000000000000000000000000000000000000000000000000000000000000000
310
00000000000000000000000000000000000000000000000000000000000000000000000000000000000000000000000000000000000000000000000000000000000000000000000000000000000000000000000000000000000000000000000000000000000000000000000000000000000000000000000000000000000000
310
000000000000000000000000000000F5F5F5000000000000000000000000000000000000000000000000F500F5F5F500F5F5F500F5F500F5F5000000000000000000000000F5F5F500000000000000000000000000000000000000000000000000000000000000000000000000000000000000000000000000000000000000
310
00000000000000000000000000000000000000000000000000000000000000000000000000000000000000000000000000000000000000000000000000000000000000000000000000000000000000000000000000000000000000000000000000000000000000000000000000000000000000000000000000000000000000
310
0000000000000000000000000000000000F5F5F5000000000000000000000000000000000000000000000000F5F500F5F5F500F5F5F5F5F5F500F5000000000000000000000000F5F5F50000000000000000000000000000000000000000000000000000000000000000000000000000000000000000000000000000000000
310
00000000000000000000000000000000000000000000000000000000000000000000000000000000000000000000000000000000000000000000000000000000000000000000000000000000000000000000000000000000000000000000000000000000000000000000000000000000000000000000000000000000000000
310
00000000000000000000000000000000000000F5F5F5000000000000000000000000000000000000000000000000F5F5F500F5F5F500F5F500F5F5F5F5000000000000000000000000F5F5F5000000000000000000000000000000000000000000000000000000000000000000000000000000000000000000000000000000
310
00000000000000000000000000000000000000000000000000000000000000000000000000000000000000000000000000000000000000000000000000000000000000000000000000000000000000000000000000000000000000000000000000000000000000000000000000000000000000000000000000000000000000
310
000000000000000000000000000000000000000000F5F5F5000000000000000000000000000000000000000000000000F500F5F500F5F5F5F5F5F500F5F5F5000000000000000000000000F5F5F500000000000000000000000000000000000000000000000000000000000000000000000000000000000000000000000000
310
00000000000000000000000000000000000000000000000000000000000000000000000000000000000000000000000000000000000000000000000000000000000000000000000000000000000000000000000000000000000000000000000000000000000000000000000000000000000000000000000000000000000000
310
0000000000000000000000000000000000000000000000F5F5F5000000000000000000000000000000000000000000000000F5F500F5F500F5F500F5F5F500F5F5000000000000000000000000F5F5F50000000000000000000000000000000000000000000000000000000000000000000000000000000000000000000000
310
00000000000000000000000000000000000000000000000000000000000000000000000000000000000000000000000000000000000000000000000000000000000000000000000000000000000000000000000000000000000000000000000000000000000000000000000000000000000000000000000000000000000000
310
00000000000000000000000000000000000000000000000000F5F5F5000000000000000000000000000000000000000000000000F5F5F500F5F5F500F500F5F5F500F5000000000000000000000000F5F5F5000000000000000000000000000000000000000000000000000000000000000000000000000000000000000000
310
00000000000000000000000000000000000000000000000000000000000000000000000000000000000000000000000000000000000000000000000000000000000000000000000000000000000000000000000000000000000000000000000000000000000000000000000000000000000000000000000000000000000000
310
000000000000000000000000000000000000000000000000000000F5F5F500000000000000000000000000000000000000000000000000F5F5F500F5F5F500F500F5F5F500000000000000000000000000F5F5F500000000000000000000000000000000000000000000000000000000000000000000000000000000000000
310
00000000000000000000000000000000000000000000000000000000000000000000000000000000000000000000000000000000000000000000000000000000000000000000000000000000000000000000000000000000000000000000000000000000000000000000000000000000000000000000000000000000000000
310
0000000000000000000000000000000000000000000000000000000000F50000000000000000000000000000000000000000000000000000F500F5F5F500F5F5F500F500F5F5F50000000000000000000000000000F50000000000000000000000000000000000000000000000000000000000000000000000000000000000
310
00000000000000000000000000000000000000000000000000000000000000000000000000000000000000000000000000000000000000000000000000000000000000000000000000000000000000000000000000000000000000000000000000000000000000000000000000000000000000000000000000000000000000
310
00000000000000000000000000000000000000000000000000000000000000F50000000000000000000000000000000000000000000000000000F5F5F500F5F500F5F5F500F500F5F50000000000000000000000000000F5000000000000000000000000000000000000000000000000000000000000000000000000000000
310
00000000000000000000000000000000000000000000000000000000000000000000000000000000000000000000000000000000000000000000000000000000000000000000000000000000000000000000000000000000000000000000000000000000000000000000000000000000000000000000000000000000000000
310
000000000000000000000000000000000000000000000000000000000000000000F50000000000000000000000000000000000000000000000000000F5F5F5F500F5F500F5F5F500F500F5000000000000000000F5F5F50000F500000000000000000000000000000000000000000000000000000000000000000000000000
310
00000000000000000000000000000000000000000000000000000000000000000000000000000000000000000000000000000000000000000000000000000000000000000000000000000000000000000000000000000000000000000000000000000000000000000000000000000000000000000000000000000000000000
310
0000000000000000000000000000000000000000000000000000000000000000000000F50000000000000000000000000000000000000000000000000000F5F5F5F5F500F5F500F5F5F500F5F5000000000000000000F500F50000F50000000000000000000000000000000000000000000000000000000000000000000000
310
00000000000000000000000000000000000000000000000000000000000000000000000000000000000000000000000000000000000000000000000000000000000000000000000000000000000000000000000000000000000000000000000000000000000000000000000000000000000000000000000000000000000000
310
00000000000000000000000000000000000000000000000000000000000000000000000000F50000000000000000000000000000000000000000000000000000F5F500F5F5F5F5F5F5F5F5F5F500F5000000000000000000F500F50000F5000000000000000000000000000000000000000000000000000000000000000000
310
00000000000000000000000000000000000000000000000000000000000000000000000000000000000000000000000000000000000000000000000000000000000000000000000000000000000000000000000000000000000000000000000000000000000000000000000000000000000000000000000000000000000000
310
000000000000000000000000000000000000000000000000000000000000000000000000000000F5000000000000000000000000000000000000000000000000F5F5000000000000000000000000000000F5F500000000000000F500F50000F500000000000000000000000000000000000000000000000000000000000000
310
00000000000000000000000000000000000000000000000000000000000000000000000000000000000000000000000000000000000000000000000000000000000000000000000000000000000000000000000000000000000000000000000000000000000000000000000000000000000000000000000000000000000000
310
0000000000000000000000000000000000000000000000000000000000000000000000000000000000F5F5F5F5F5F5F5000000000000000000000000000000000000F5F5000000000000000000000000000000F5F500000000000000F500F5F5F5F50000000000000000000000000000000000000000000000000000000000
310
00000000000000000000000000000000000000000000000000000000000000000000000000000000000000000000000000000000000000000000000000000000000000000000000000000000000000000000000000000000000000000000000000000000000000000000000000000000000000000000000000000000000000
310
00000000000000000000000000000000000000000000000000000000000000000000000000000000000000F5F5F5F50000F500000000000000000000000000000000F5F5F5F5F5F5F5000000000000000000000000000000000000000000F500F5F5F5F5000000000000000000000000000000000000000000000000000000
310
00000000000000000000000000000000000000000000000000000000000000000000000000000000000000000000000000000000000000000000000000000000000000000000000000000000000000000000000000000000000000000000000000000000000000000000000000000000000000000000000000000000000000
310
000000000000000000000000000000000000000000000000000000000000000000000000000000000000000000F5F5F5F50000F500000000000000000000000000000000F50000000000F5000000000000000000000000000000000000000000F500F5F5F5F500000000000000000000000000000000000000000000000000
310
00000000000000000000000000000000000000000000000000000000000000000000000000000000000000000000000000000000000000000000000000000000000000000000000000000000000000000000000000000000000000000000000000000000000000000000000000000000000000000000000000000000000000
310
0000000000000000000000000000000000000000000000000000000000000000000000000000000000000000000000F5F5F5F50000F5000000000000000000000000F5F50000F50000000000F500000000000000000000000000000000F5F50000F5F500F5F5F5F50000000000000000000000000000000000000000000000
310
00000000000000000000000000000000000000000000000000000000000000000000000000000000000000000000000000000000000000000000000000000000000000000000000000000000000000000000000000000000000000000000000000000000000000000000000000000000000000000000000000000000000000
310
00000000000000000000000000000000000000000000000000000000000000000000000000000000000000000000000000F5F5F5F50000F5000000000000000000000000F5F50000F5F5F5F5F5F5F500000000000000000000000000000000F5F50000F50000F5F5F5F5000000000000000000000000000000000000000000
310
00000000000000000000000000000000000000000000000000000000000000000000000000000000000000000000000000000000000000000000000000000000000000000000000000000000000000000000000000000000000000000000000000000000000000000000000000000000000000000000000000000000000000
310
000000000000000000000000000000000000000000000000000000000000000000000000000000000000000000000000000000F5F5F5F50000F500000000000000000000000000000000000000000000000000000000F5F5F5F5F5F5F5F5F5000000000000F50000F5F5F5F500000000000000000000000000000000000000
310
00000000000000000000000000000000000000000000000000000000000000000000000000000000000000000000000000000000000000000000000000000000000000000000000000000000000000000000000000000000000000000000000000000000000000000000000000000000000000000000000000000000000000
310
0000000000000000000000000000000000000000000000000000000000000000000000000000000000000000000000000000000000F5F5F5F50000F500000000000000000000000000000000F5F5F5F5F5F5F50000000000000000000000000000000000000000F50000F5F5F5F50000000000000000000000000000000000
310
00000000000000000000000000000000000000000000000000000000000000000000000000000000000000000000000000000000000000000000000000000000000000000000000000000000000000000000000000000000000000000000000000000000000000000000000000000000000000000000000000000000000000
310
00000000000000000000000000000000000000000000000000000000000000000000000000000000000000000000000000000000000000F5F5F5F50000F500000000000000000000000000000000F50000000000F50000000000F5F5F5F50000000000000000000000F50000F5F5F5F5000000000000000000000000000000
310
00000000000000000000000000000000000000000000000000000000000000000000000000000000000000000000000000000000000000000000000000000000000000000000000000000000000000000000000000000000000000000000000000000000000000000000000000000000000000000000000000000000000000
310
000000000000000000000000000000000000000000000000000000000000000000000000000000000000000000000000000000000000000000F5F5F5F50000F500000000000000000000000000000000F50000000000F50000000000F50000F50000000000000000000000F50000F5F5F5F500000000000000000000000000
310
00000000000000000000000000000000000000000000000000000000000000000000000000000000000000000000000000000000000000000000000000000000000000000000000000000000000000000000000000000000000000000000000000000000000000000000000000000000000000000000000000000000000000
310
0000000000000000000000000000000000000000000000000000000000000000000000000000000000000000000000000000000000000000000000F5F5F5F5F5F5F500000000000000000000000000000000F5F5F5F5F5F5F50000000000F50000F50000000000000000000000F50000F5F5F5F50000000000000000000000
310
00000000000000000000000000000000000000000000000000000000000000000000000000000000000000000000000000000000000000000000000000000000000000000000000000000000000000000000000000000000000000000000000000000000000000000000000000000000000000000000000000000000000000
310
00000000000000000000000000000000000000000000000000000000000000000000000000000000000000000000000000000000000000000000000000F500000000000000000000000000000000000000000000000000000000000000000000F50000F50000000000000000000000F5F5F5F50000F5000000000000000000
310
00000000000000000000000000000000000000000000000000000000000000000000000000000000000000000000000000000000000000000000000000000000000000000000000000000000000000000000000000000000000000000000000000000000000000000000000000000000000000000000000000000000000000
310
000000000000000000000000000000000000000000000000000000000000000000000000000000000000000000000000000000000000000000000000000000F500000000F5F500000000000000000000000000000000000000000000000000000000F50000F50000000000000000000000F5F500000000F500000000000000
310
00000000000000000000000000000000000000000000000000000000000000000000000000000000000000000000000000000000000000000000000000000000000000000000000000000000000000000000000000000000000000000000000000000000000000000000000000000000000000000000000000000000000000
310
0000000000000000000000000000000000000000000000000000000000000000000000000000000000000000000000000000000000000000000000000000000000F50000000000F500000000000000000000000000000000000000000000000000000000F50000F50000000000000000000000F50000000000F50000000000
310
00000000000000000000000000000000000000000000000000000000000000000000000000000000000000000000000000000000000000000000000000000000000000000000000000000000000000000000000000000000000000000000000000000000000000000000000000000000000000000000000000000000000000
310
00000000000000000000000000000000000000000000000000000000000000000000000000000000000000000000000000000000000000000000000000000000000000F500000000000000000000000000000000000000000000000000000000000000000000F5F5F5F50000000000000000000000000000000000F5000000
310
00000000000000000000000000000000000000000000000000000000000000000000000000000000000000000000000000000000000000000000000000000000000000000000000000000000000000000000000000000000000000000000000000000000000000000000000000000000000000000000000000000000000000
310
000000000000000000000000000000000000000000000000000000000000000000000000000000000000000000000000000000000000000000000000000000000000000000F500000000000000000000000000000000000000000000000000000000000000000000000000000000000000000000000000000000000000F500
310
00000000000000000000000000000000000000000000000000000000000000000000000000000000000000000000000000000000000000000000000000000000000000000000000000000000000000000000000000000000000000000000000000000000000000000000000000000000000000000000000000000000000000
310
0000000000000000000000000000000000000000000000000000000000000000000000000000000000000000000000000000000000000000000000000000000000000000000000F500000000000000F5F5F5F5F5F5F5F5F5F5F5F5000000F5F5F5F5F5F5F5F5F5F5F5000000F5F5F5F5F5F5F5F5F5F5F50000000000000000
310
F5000000000000000000000000000000000000000000000000000000000000000000000000000000000000000000000000000000000000000000000000000000000000000000000000000000000000000000000000000000000000000000000000000000000000000000000000000000000000000000000000000000000000
310
00000000000000000000000000000000000000000000000000000000000000000000000000000000000000000000000000000000000000000000000000000000000000000000000000F500000000000000F5F5F5F5F5F5F5F5F5F5F5F5000000F5F5F5F5F5F5F5F5F5F5F5000000F5F5F5F5F5F5F5F5F5F5F5000000000000
310
0000F500000000000000000000000000000000000000000000000000000000000000000000000000000000000000000000000000000000000000000000000000000000000000000000000000000000000000000000000000000000000000000000000000000000000000000000000000000000000000000000000000000000
310
000000000000000000000000000000000000000000000000000000000000000000000000000000000000000000000000000000000000000000000000000000000000000000000000000000F5000000000000000000000000000000000000000000000000000000000000000000000000000000000000000000000000000000
310
00000000F50000000000000000000000000000000000000000000000000000000000000000000000000000000000000000000000000000000000000000000000000000000000000000000000000000000000000000000000000000000000000000000000000000000000000000000000000000000000000000000000000000
310
0000000000000000000000000000000000000000000000000000000000000000000000000000000000000000000000000000000000000000000000000000000000000000000000000000000000F5F5F5F5F5F5F5F5F5F5F5F5F5F5F5F5F5F5F5F5F5F5F5F5F5F5F5F5F5F5F5F5F5F5F5F5F5F5F5F5F5F5F5F5F5F5F5F5F5F5
310
F5F5F5F5F5F5F5000000000000000000000000000000000000000000000000000000000000000000000000000000000000000000000000000000000000000000000000000000000000000000000000000000000000000000000000000000000000000000000000000000000000000000000000000000000000000000000000
310
00000000000000000000000000000000000000000000000000000000000000000000000000000000000000000000000000000000000000000000000000000000000000000000000000000000000000000000000000000000000000000000000000000000000000000000000000000000000000000000000000000000000000
310
00000000000000000000000000000000000000000000000000000000000000000000000000000000000000000000000000000000000000000000000000000000000000000000000000000000000000000000000000000000000000000000000000000000000000000000000000000000000000000000000000000000000000
310
00000000000000000000000000000000000000000000000000000000000000000000000000000000000000000000000000000000000000000000000000000000000000000000000000000000000000000000000000000000000000000000000000000000000000000000000000000000000000000000000000000000000000
310
00000000000000000000000000000000000000000000000000000000000000000000000000000000000000000000000000000000000000000000000000000000000000000000000000000000000000000000000000000000000000000000000000000000000000000000000000000000000000000000000000000000000000
310
00000000000000000000000000000000000000000000000000000000000000000000000000000000000000000000000000000000000000000000000000000000000000000000000000000000000000000000000000000000000000000000000000000000000000000000000000000000000000000000000000000000000000
310
00000000000000000000000000000000000000000000000000000000000000000000000000000000000000000000000000000000000000000000000000000000000000000000000000000000000000000000000000000000000000000000000000000000000000000000000000000000000000000000000000000000000000
310
00000000000000000000000000000000000000000000000000000000000000000000000000000000000000000000000000000000000000000000000000000000000000000000000000000000000000000000000000000000000000000000000000000000000000000000000000000000000000000000000000000000000000
310
00000000000000000000000000000000000000000000000000000000000000000000000000000000000000000000000000000000000000000000000000000000000000000000000000000000000000000000000000000000000000000000000000000000000000000000000000000000000000000000000000000000000000
310
00000000000000000000000000000000000000000000000000000000000000000000000000000000000000000000000000000000000000000000000000000000000000000000000000000000000000000000000000000000000000000000000000000000000000000000000000000000000000000000000000000000000000
310
00000000000000000000000000000000000000000000000000000000000000000000000000000000000000000000000000000000000000000000000000000000000000000000000000000000000000000000000000000000000000000000000000000000000000000000000000000000000000000000000000000000000000
310
00000000000000000000000000000000000000000000000000000000000000000000000000000000000000000000000000000000000000000000000000000000000000000000000000000000000000000000000000000000000000000000000000000000000000000000000000000000000000000000000000000000000000
310
00000000000000000000000000000000000000000000000000000000000000000000000000000000000000000000000000000000000000000000000000000000000000000000000000000000000000000000000000000000000000000000000000000000000000000000000000000000000000000000000000000000000000
310
00000000000000000000000000000000000000000000000000000000000000000000000000000000000000000000000000000000000000000000000000000000000000000000000000000000000000000000000000000000000000000000000000000000000000000000000000000000000000000000000000000000000000
310
00000000000000000000000000000000000000000000000000000000000000000000000000000000000000000000000000000000000000000000000000000000000000000000000000000000000000000000000000000000000000000000000000000000000000000000000000000000000000000000000000000000000000
310
00000000000000000000000000000000000000000000000000000000000000000000000000000000000000000000000000000000000000000000000000000000000000000000000000000000000000000000000000000000000000000000000000000000000000000000000000000000000000000000000000000000000000
310
00000000000000000000000000000000000000000000000000000000000000000000000000000000000000000000000000000000000000000000000000000000000000000000000000000000000000000000000000000000000000000000000000000000000000000000000000000000000000000000000000000000000000
310
00000000000000000000000000000000000000000000000000000000000000000000000000000000000000000000000000000000000000000000000000000000000000000000000000000000000000000000000000000000000000000000000000000000000000000000000000000000000000000000000000000000000000
310
00000000000000000000000000000000000000000000000000000000000000000000000000000000000000000000000000000000000000000000000000000000000000000000000000000000000000000000000000000000000000000000000000000000000000000000000000000000000000000000000000000000000000
310
00000000000000000000000000000000000000000000000000000000000000000000000000000000000000000000000000000000000000000000000000000000000000000000000000000000000000000000000000000000000000000000000000000000000000000000000000000000000000000000000000000000000000
310
00000000000000000000000000000000000000000000000000000000000000000000000000000000000000000000000000000000000000000000000000000000000000000000000000000000000000000000000000000000000000000000000000000000000000000000000000000000000000000000000000000000000000
310
00000000000000000000000000000000000000000000000000000000000000000000000000000000000000000000000000000000000000000000000000000000000000000000000000000000000000000000000000000000000000000000000000000000000000000000000000000000000000000000000000000000000000
310
00000000000000000000000000000000000000000000000000000000000000000000000000000000000000000000000000000000000000000000000000000000000000000000000000000000000000000000000000000000000000000000000000000000000000000000000000000000000000000000000000000000000000
310
00000000000000000000000000000000000000000000000000000000000000000000000000000000000000000000000000000000000000000000000000000000000000000000000000000000000000000000000000000000000000000000000000000000000000000000000000000000000000000000000000000000000000
310
00000000000000000000000000000000000000000000000000000000000000000000000000000000000000000000000000000000000000000000000000000000000000000000000000000000000000000000000000000000000000000000000000000000000000000000000000000000000000000000000000000000000000
310
00000000000000000000000000000000000000000000000000000000000000000000000000000000000000000000000000000000000000000000000000000000000000000000000000000000000000000000000000000000000000000000000000000000000000000000000000000000000000000000000000000000000000
310
00000000000000000000000000000000000000000000000000000000000000000000000000000000000000000000000000000000000000000000000000000000000000000000000000000000000000000000000000000000000000000000000000000000000000000000000000000000000000000000000000000000000000
310
00000000000000000000000000000000000000000000000000000000000000000000000000000000000000000000000000000000000000000000000000000000000000000000000000000000000000000000000000000000000000000000000000000000000000000000000000000000000000000000000000000000000000
310
00000000000000000000000000000000000000000000000000000000000000000000000000000000000000000000000000000000000000000000000000000000000000000000000000000000000000000000000000000000000000000000000000000000000000000000000000000000000000000000000000000000000000
310
00000000000000000000000000000000000000000000000000000000000000000000000000000000000000000000000000000000000000000000000000000000000000000000000000000000000000000000000000000000000000000000000000000000000000000000000000000000000000000000000000000000000000
310
00000000000000000000000000000000000000000000000000000000000000000000000000000000000000000000000000000000000000000000000000000000000000000000000000000000000000000000000000000000000000000000000000000000000000000000000000000000000000000000000000000000000000
310
00000000000000000000000000000000000000000000000000000000000000000000000000000000000000000000000000000000000000000000000000000000000000000000000000000000000000000000000000000000000000000000000000000000000000000000000000000000000000000000000000000000000000
310
00000000000000000000000000000000000000000000000000000000000000000000000000000000000000000000000000000000000000000000000000000000000000000000000000000000000000000000000000000000000000000000000000000000000000000000000000000000000000000000000000000000000000
310
00000000000000000000000000000000000000000000000000000000000000000000000000000000000000000000000000000000000000000000000000000000000000000000000000000000000000000000000000000000000000000000000000000000000000000000000000000000000000000000000000000000000000
310
00000000000000000000000000000000000000000000000000000000000000000000000000000000000000000000000000000000000000000000000000000000000000000000000000000000000000000000000000000000000000000000000000000000000000000000000000000000000000000000000000000000000000
310
000000000000000000000000
  0
XRECORD
  5
1FA
102
{ACAD_REACTORS
330
1F9
102
}
330
1F9
100
AcDbXrecord
280
     1
 70
     1
 90
429727718
  1
D62C5603-E3A1-4AEA-B7FB-FE5D8D0755AF
310
504B03040A0000080000CC70623B3DEE336E79000000790000001B0000006175746F6465736B2D64657369676E2D7061636B6167652E786D6C3C3F786D6C2076657273696F6E3D22312E302220656E636F64696E673D227574662D3822203F3E3C666F726D6174733E3C666F726D61743E687474703A2F2F736368656D612E
310
6175746F6465736B2E636F6D2F64657369676E2D7061636B6167652F323030393C2F666F726D61743E3C2F666F726D6174733E504B0304140006080800CC70623BD486FD9CA0000000F4000000130000005B436F6E74656E745F54797065735D2E786D6C7D8EC10E82300C865F65E91D8A1E8C310C0EEA1BF002731658846E
310
D98AC1B77784ABF1D8FE5FBFBF75BBCE937A534CCEB38643598122B6FEE978D0B0485F9C41B54DDD7D022595594E1A469170414C76A4D9A4D207E29CF43ECE46F218070CC6BECC4078ACAA135ACF422C856C0E68EA1BF5669944DDD7BCDE7B1F8E415D77AECB980613C2E4AC91FC167A2B244592486606FC29C8FD7F045B9A
310
EF7053A7E60B504B0304140006080800CC70623B853B8169EB0000007C01000008000000636F72652E786D6C8D90416EC3201045AF62CDB6C206821CC7C244919D9CA01740401C94182C03558F5F9C3852BBEB6A467FFE9B197D7EFC9E1EC5975982F5AE035262288C535E5B377690E21535501C055FBC8FBF6C503839990E
310
5619041F179FE64D52DE45E362569DD7661365082642A11EB9E920A89B99642953CC8E702F67A9EE7234257977194EC9EAE275C4EABCCF5EAD5940D4AC6F0E35A568B8F43562CD7046CD199FD07E60174276A7BE677B5EADB0E0D14EEFFB6A31321A0D82627C4084204C3F096B71DD52F6819B16635EADF63F509AF53FA164
310
5DDCD1EDDD17164090FCC8732078B56691CB33A85CD7DCC40F504B0304140006080800CC70623B55019EA25F0000007C00000007000000636E782E786D6C4DCB3B0E80201045D1AD90E915ED2CF8AC45050C11660C8261F98AB1B07AC9C97D42D718D865D3E909258CFD00CCE24AC6E326A164D74DC0B4128928FF32603847
310
2BA13128B1252AC747C6BAB984FC68F0B87FE8960A5C09FE86CFB69FBA01504B0304140006080800CC70623BDBABAAF470010000D40300000C0000006662782F636F72652E786D6CC553D16E823014FD95A6AF4B694182CC941A83FA05FB810A9511A125A5257EFE2E82712ECEB8A7F100CD39F7F69E734AF9FADC366850B6
310
AF8DCE7018308C942E4C59EB2AC3DE1D498AD15A706B8CFB56869196ADCAF00863C12B6B7C374385D14E6907A836A59A41D9F7CA615434B0C8705F7CAA5606D23BA8E84F41278B93AC54100640439DE0BDB320004D43C63716C7C399D30917DCFBBA9CD9BA8469F5B156168B24CED3F7248AC8769F27244EB73B92EED8862C
310
B7F13E0C179B3C8F979C8ECD82BBBABDAA2BAC924E9558448CBD9330242CFA08E3154B5651FCC6D215639C8EE5774DBE2B5F6CF2B5768B68963BB5F5588420E442FC700B1139D4CB01F450C1E918227C2E09DF070D8140C84E1E9AAB8F1340832A9CB13130A5F1376A908D57309505ECF2A0DF179C4E9D30F5B239B87E3823
310
7A79C6F31DE1A8A5AEC08474B03C7837EAE4938639B44E5932B833D2C6B6B279CDC613877FA26EE21F4A2A4C63EC7F29A2F301D1F9F7A0E37D145F504B0304140006080800CC70623B9C113CC27E0000009D0000000B0000006662782F636E782E786D6C4DCCDF0A83201C86E15B91DFB94BFB330DD428C8FB886521330DA7
310
6397BF1A1DECE883878F57749FCDA1B7892F1BBC047A23808C7F84D9FA55424E0BE6803A256208E9EF06C84F9B91703228B1C690F78B66B34CD9A5439DF5CF0BFBF65E35BCA1B8D6A5C6F540381E886698B5741C695F9503EBA150A2F8958E3DC3EA0B504B0304140006080800CC70623B7DF2F77C2A010000120200003100
310
00006662782F41393633353835312D344632462D344230382D423046372D3739314545314133324237412F636F72652E786D6C8D51DB8EC22014FC15C2939B0D2DB4B45643319AE817EC0F6041255A68B86CFCFC856D4D76DF7CE190393373060EDB3DC707F856CE6B6B7A480A0C81328395DA5C7B18C3057510EC3873D686
310
3F34088C18550F330C39BB3A1BA7051AAC09CA84841A2BD5020AEF55806078A44B0FFD7053A328440C89E1EFC52486BBB8AA8214A99D789CF9E05200300FC927E4FB4D5B375D43103D5527440FB843077C5AA3F5861C8F645F5787F59E95B390B318B55CE45AA638FAA2957BD7248B390B7A7CC51F9C124149C82B8C378810
310
84AB2F42B7B8DD56F413775B8C5999E9FF4471926F8AA236A1AE96B8B3CC434E5839373893369E1FAF30EA395917409EB7F26AF8801C171837A4A6AC9C89E9F9C9B1A58BA30FD6A5EF5DDDCF894B9AD9B6A59C957943A9FCAE2FD5BC4DFE03504B0304140006080800CC70623BAD7543B64E01000033030000300000006662
310
782F41393633353835312D344632462D344230382D423046372D3739314545314133324237412F636E782E786D6CD593CD6EC32010845F0571AD6CE3D48AD20813A9873E410FBD12D82434182C7EAAE6EDBB2424CD25871E7B41D6EC30B3FA84F9E67BB2E40B4234DE8DB46F1925E094D7C6ED479AD3AE5951B2113C789FEE
310
6C943839C1488B4C05DF079FE72A69D8C96C13AAD6B8631503449F83828872B949AC57D26200B826A308D316B4064D6E46FCDA41C05550DC9E483A00797BFD207EFB092A45DE9514C1BBD22178396BD39D891265658C238DEA00936C654E5E433CB65A26D9F6EDB5EBC14EBF49A45CB856E66048291F6939A9A81BB5C89177
310
38143CA680F4AA299D66A042CEB3354A2684DC9D8D178FE0D9B8B41CAAD720F880EE7EF93C0C18769E099ECC04D5A102C8049A8A05632F4DDF376CF1DE0F6BB65C2F8627B65A33C6BB62177CEBBDAD973006829F89F22E814B54F4BC2BE347F8AA8F681390B50FA73F804400B5F542E796F19FF974E7F78DB802FE05E20750
310
4B0304140006080800CC70623BE75B7789680500003C100000340000006662782F41393633353835312D344632462D344230382D423046372D3739314545314133324237412F6F626A656374732E786D6CAD575B8F9B3818FD2B887D06C22499CB8AA1CA655245D5B455A356FB305264C061D8018C6C3393D95FBFC7600890
310
A4CD5EF210B0B1BFEBF98E3F7B1FF6596ABC522E1296DF9BAE3D320D9A872C4AF2F8DE2CE5CEBA358D0FBEC719939D65A691938CDE9B6ADAF4BD98B3B2D05311DD91329583D9D5FC0F438434A7A611A644887B5384CF34233629258BA878B12322891DEFF6B66BD70BFB62634E8AE781D082709A4B588AF91C528CDA28B73F
310
1C998EEF39EABBEFA97FBD6A7C7E9553F9D3D79FE442923C3C523610337627CB87ABE99D359D4CC6D6E4FACAB5E6ABF9D2726FC6A3C5F56271377BB88362213924694B38DD99FE47C48627A1E7D49F5A8BB5E1A74C0A599ED3B0F21F1E56366B89112D681E218F0915D0D6F17AD41FBA2A369DCF6335D62ABBD39779D5DDD1
310
11D4D8DE3CBB96B2E04FB8202E41051754A1AA8E8F76B4C6DFE810B580B1547F4B84911149794252234D024EF8BBE963A95AE27B3D310A9D5C215C7960FAEE415ED75694C6AFB17BCACA5D99A60A9AA65F217B0BFC53292ACB92BF283FAD0D3621576592CB5BED907C2FA8E9DF794E35E97BEA31BED21FEB401ABB94C44839
310
DCACBF0E1C5DA8DA5B2F4DFFD32AD86F543D9E565E7056502E157C00AD2671CD534549AB752FCA9CDA00677A313F04E51B22FF19E57B300579E3C97EB29F682D92935CEC18CF901B7B54FD8C51F362B56FC72FE0B3C1EAE335EDCCBF5AEC39ADB17DC238973F804BA5E6F6BFE7AF1FB32E523BE9F3BD571418E3631DCA4D48
310
5250CF639223210A9446CA30052EDF057BD35F8329C1ECD84552BF0DC8D18BE7BCE23BFE6BD960AB4A7DE79923A103BEBD80F911CBAA2C60DB19B01CF164A5583B772EE6D3FFA56666CBCDA74DC97724A48F9A58967497E489C4D979006FD7A05E227A1EBDD0F737C623387A9C844D3709995625106D157315F8B8392CD4E0
310
A0B9A720C4BE9829CEF37EA1E13111214D53925356365ADA634861B52519DD27A00AEB808EAF0628E6F435519D446F45CF2C9CF5214F0A15B2F6D06B79DA3EE3CBF7F56780D2F4E7EF73A0F5E5B02A38D07DC852C6B7C1FBB6664213E0C39E3EBA7FF4E1AD23EA2829407C85E586727488B751B2DB9502BC7B228A3FD68B6E
310
A65A22397E690AA8D158D7E404EC8CDA235CC3B7D1898680131CEC2CDF2638C65196279577750F15884AEE19F94199155B92B13297978469D4F8D358DF0AEF7631E28DC8F0D9F437D5D39A83B2231A1D52D543813A824EF8D44BCFF2FA6A31BD1E8DAD87F1CCB526B3879935BF59CDADD5C37479BB1CDD4CA7B3556B516589
310
EF352754B706114D9C885EC9131DE6EFEB43D99AFE2391C2F958179413D7CFEF6B1B6DB1E7600F00DE6E5C67454A339A4BA2E0FBA85ED26F045D454F463DBFCE484C2F90F2E5E3666003662ED8F755951A7D1BECD5B30B550B2785C8E7320B7292A4838DDA71BBC863ED7613CAF659337A3354231D4FF4A182A54904C2898C
310
98B28C4AD0CE056CCF332A80986E571EE9DBC305BB5FEB7E509220A58D25CF042D712A806AC0AD0C657FDEF80D2D9CEAA2EE4D1C76F60BFE74219A06527D6F82DF6412526107381E55E353090704D085B52408A8913C4ED159D79BDA71BB4BC506F4831350EB6F975CD22D69BF7AC49B91A2C0A9DDA3D5CA36AD20FC478E37
310
E61844E2352865EBCB61A275A65283CAAA9DD27703B4102F5AF51EF5F573B75CBB5AD38BC845F7A49F82A0966A49C2E3EA5EA0ECD326CD965F1DB402C6FA8B51A4658C5C5E2EC9E214602E55810345408596591009A82E7E7FFACA19EEA299B14A0081A705CB3296EBC14CDF658DCD336EA6D1136881AAEB87B81AB9EE53D5
310
F5EB8BC8362082DA24122F98680A4E7930C01A0079749CEA14382A0783E5EBA5A10F8C098456A03D6A4AEB6BB881E2513747552A5DB22C7EDAF83BD5528081A365F7FF06504B0304140006080000CC70623B000000000000000000000000350000006662782F41393633353835312D344632462D344230382D423046372D37
310
39314545314133324237412F76657274696365732E62696E504B0304140006080800CC70623BF270F1330600000004000000360000006662782F41393633353835312D344632462D344230382D423046372D3739314545314133324237412F747269616E676C65732E62696E636660600000504B0304140006080000CC7062
310
3B000000000000000000000000370000006662782F41393633353835312D344632462D344230382D423046372D3739314545314133324237412F617474726962757465732E62696E504B0304140006080800CC70623B08DA0BD19000000041010000360000006662782F41393633353835312D344632462D344230382D4230
310
46372D3739314545314133324237412F6469726563746F72792E786D6C858F410AC3201045AF22B36F53E9A60B35CBEEBAE80D244E44489C6234F4F835464A48035D0DF398FF9F8AF63D0E6CC63039F212F8F9020C7D47C6792B21C5FE7403D62A1188E2E60C98D7234A5830286103A55745067B9D86B8A3CF9C7F90C11DE6
310
07FB144396D7B6A82D282E9A152AD114D5EF2CB866EEE831B8EEA07A7BB5A8D7D61A2BAAEB7FD5F70921FF497D00504B0304140006080800CC70623BEDD1DC58FD000000A00100003B0000006662782F41393633353835312D344632462D344230382D423046372D3739314545314133324237412F7265736F75726365732F
310
636F72652E786D6C8D504B6E833010BD0A9A6D65B00922041947112427E8052C33A156828DFCA97AFC9A40A576D7CDCCE87D344F8F9FBFE667F689CE6B6B3A6039850C8DB2A336530731DC4903D95970676DF82583CCC8193B5861107C72362E3BA4AC096842428D1D7107A5F7182053CF7474E0D507CE32973124857FE48B
310
540F3961CEF244279DE03EB81420DB9EAC1384436FA353E879B1B182C7A8C75DA3C7F453DF353A1075D537A7BA6464B8F535A99AE14A9A2BBD90E350DD183B5CFABE3AF262350B1EF4FC9351399401471025A527C218A1E53BAB5A5AB765F5469B96525EACF23FA6B88CFF34456DC2A1DCE36E360F82A5202F42F062ED2BAD
310
579969AFDD8A6F504B010214000A0000080000CC70623B3DEE336E79000000790000001B00000000000000000000000000000000006175746F6465736B2D64657369676E2D7061636B6167652E786D6C504B01021400140006080800CC70623BD486FD9CA0000000F40000001300000000000000000000000000B20000005B
310
436F6E74656E745F54797065735D2E786D6C504B01021400140006080800CC70623B853B8169EB0000007C010000080000000000000000000000000083010000636F72652E786D6C504B01021400140006080800CC70623B55019EA25F0000007C000000070000000000000000000000000094020000636E782E786D6C504B
310
01021400140006080800CC70623BDBABAAF470010000D40300000C00000000000000000000000000180300006662782F636F72652E786D6C504B01021400140006080800CC70623B9C113CC27E0000009D0000000B00000000000000000000000000B20400006662782F636E782E786D6C504B01021400140006080800CC70
310
623B7DF2F77C2A010000120200003100000000000000000000000000590500006662782F41393633353835312D344632462D344230382D423046372D3739314545314133324237412F636F72652E786D6C504B01021400140006080800CC70623BAD7543B64E010000330300003000000000000000000000000000D2060000
310
6662782F41393633353835312D344632462D344230382D423046372D3739314545314133324237412F636E782E786D6C504B01021400140006080800CC70623BE75B7789680500003C10000034000000000000000000000000006E0800006662782F41393633353835312D344632462D344230382D423046372D3739314545
310
314133324237412F6F626A656374732E786D6C504B01021400140006080000CC70623B0000000000000000000000003500000000000000000000000000280E00006662782F41393633353835312D344632462D344230382D423046372D3739314545314133324237412F76657274696365732E62696E504B01021400140006
310
080800CC70623BF270F133060000000400000036000000000000000000000000007B0E00006662782F41393633353835312D344632462D344230382D423046372D3739314545314133324237412F747269616E676C65732E62696E504B01021400140006080000CC70623B0000000000000000000000003700000000000000
310
000000000000D50E00006662782F41393633353835312D344632462D344230382D423046372D3739314545314133324237412F617474726962757465732E62696E504B01021400140006080800CC70623B08DA0BD1900000004101000036000000000000000000000000002A0F00006662782F41393633353835312D344632
310
462D344230382D423046372D3739314545314133324237412F6469726563746F72792E786D6C504B01021400140006080800CC70623BEDD1DC58FD000000A00100003B000000000000000000000000000E1000006662782F41393633353835312D344632462D344230382D423046372D3739314545314133324237412F7265
310
736F75726365732F636F72652E786D6C504B0506000000000E000E0080040000641100000000
  0
XRECORD
  5
1F8
102
{ACAD_REACTORS
330
1F7
102
}
330
1F7
100
AcDbXrecord
280
     1
 70
     1
 90
429727718
  1
30362254-06B7-45E0-A893-8CFA70E3D6BC
310
504B03040A0000080000CC70623B3DEE336E79000000790000001B0000006175746F6465736B2D64657369676E2D7061636B6167652E786D6C3C3F786D6C2076657273696F6E3D22312E302220656E636F64696E673D227574662D3822203F3E3C666F726D6174733E3C666F726D61743E687474703A2F2F736368656D612E
310
6175746F6465736B2E636F6D2F64657369676E2D7061636B6167652F323030393C2F666F726D61743E3C2F666F726D6174733E504B0304140006080800CC70623BD486FD9CA0000000F4000000130000005B436F6E74656E745F54797065735D2E786D6C7D8EC10E82300C865F65E91D8A1E8C310C0EEA1BF002731658846E
310
D98AC1B77784ABF1D8FE5FBFBF75BBCE937A534CCEB38643598122B6FEE978D0B0485F9C41B54DDD7D022595594E1A469170414C76A4D9A4D207E29CF43ECE46F218070CC6BECC4078ACAA135ACF422C856C0E68EA1BF5669944DDD7BCDE7B1F8E415D77AECB980613C2E4AC91FC167A2B244592486606FC29C8FD7F045B9A
310
EF7053A7E60B504B0304140006080800CC70623B1EC5D7A3EB0000007C01000008000000636F72652E786D6C8D90416EC3201045AF82665B6103C6756C6122AB4D4ED00B204C5C94182C03558F5F9C3852BBEB6A467FFE9B197D71FC9E6FE8CBACC17AD7032D0820E3B41FAD9B7A48F1820F808E52ACDEC75F36404ECDA687
310
4D0629A6D5A76597B477D1B89855E747B38B2A041301E95B6E7A08FAD3CCAA50296647B8168BD2573599823EBB0CA76447F43862C7BCCF5EAC59410E4DDD9C7973C2755553CCCFA4C603E3040F1565ED3B1FDE4E432BCA0D9622DAF9795FAF464533826484B498524CD807E51D79ED187F21878E10516EF63F505AC67F42C9
310
BA58B1FDDD071640D2FCC87D2045B96591CB3DA85CB7DCE40F504B0304140006080800CC70623B55019EA25F0000007C00000007000000636E782E786D6C4DCB3B0E80201045D1AD90E915ED2CF8AC45050C11660C8261F98AB1B07AC9C97D42D718D865D3E909258CFD00CCE24AC6E326A164D74DC0B4128928FF32603847
310
2BA13128B1252AC747C6BAB984FC68F0B87FE8960A5C09FE86CFB69FBA01504B0304140006080800CC70623B8C9102E971010000D40300000C0000006662782F636F72652E786D6CC5535B6E833010BC8AE5DF0A6C08340F1947A84D4ED00B38C6A128602363A31CBFCB234A53A551FA553EC09AD9F5CE8C31DB9E9B1AF5CA
310
7695D1198E428A91D2D214952E33ECDD315861B4E5CC1AE3BE9561A445A3323CC098B3D21ADFCE9034DA29ED00D5A6503328BA4E398C640D8B0C77F253352214DE4145770A5B214FA2546114020D759C75CE8200340D19DE981F0F6746269C33EFAB6266AB02A655C74A59CCF365BADC27CB5D902ED22848F6340DF238A141
310
BE88E2F57B92BFEDF23523433367AE6A2EEAA455C2A902F398D2751045018D3FA264435F3771F242571B4A1919CA6F9A7C5B3CD9E42BED16F12C776AEB308F40C848FC700B1139D4891EF410CEC810227CC6846F8386402064270EF5C5C709A05E49676C024C61FC95EA45ED154CA5211D1FF4FB8291A913A68E9B83EBBB33
310
E2A7673CDE118E5AE8124C0807CB8377834E366998436B950D7A7746DAD846D4CFD978E0F04FD455FC5D49D2D4C6FE9722321F10997F0F32DC47FE05504B0304140006080800CC70623BFFEA85907E0000009D0000000B0000006662782F636E782E786D6C4DCCD10A83201886E15B91FFDC95D95A811AB6F23E625948A6C3
310
E9D8E5AF46073BFAE0E1E365ED67B3E8ADC3CB78C7815C7240DA3DFC64DCC221C519D7805AC182F7F1EF06C88D9BE6703008B6049F9E274D7A1E938DBB5AE3D6131B2589BA0D3D965551E0B2EA732C9B9A624AAEB41E3A557677029960D9AFB4EF11165F504B0304140006080800CC70623B4FEEA4082C0100001202000031
310
0000006662782F39464131463745442D413632322D343644302D413938332D3331353338454246344243312F636F72652E786D6C8D515B6EC32010BC0AE2AB55850DD871ED0813254D72825EC00192A2C460F1A872FC42ED48ED5F7E00CDCECCCEB26C731F6FE05B39AFADE921293004CA082BB5B9F43086336A21D870E6AC
310
0D7F68109861543DCC30E4ECE26C9C164858139409093556AA051CBC570102714B8F1E7AF1A5C6A11862480C7F2DA6415C878B2A4891CA89C7990F2E050073937C42DE1DB7E4F87ED8A36D4329AA9B3D46DBAEAD504556557BD81DEBDD0761E52CE42C462D17B996298E3E6BE59E35C962CE821E1FF18553435012728A7187
310
0841987E927A8D9B35ADDF70BBC6989599FE4F1427F9A4286A132ABAC49D651EF234CD5CE04CDA78BA3DC2A8FB645D00B9DF8B57E215725C60BCA2A463E54C4CE327C7A65E1C7DB02E7DEFCBF594B864C5CA6CDBD49C957943E9FA5D5FBAF336F90F504B0304140006080800CC70623BAD7543B64E01000033030000300000
310
006662782F39464131463745442D413632322D343644302D413938332D3331353338454246344243312F636E782E786D6CD593CD6EC32010845F0571AD6CE3D48AD20813A9873E410FBD12D82434182C7EAAE6EDBB2424CD25871E7B41D6EC30B3FA84F9E67BB2E40B4234DE8DB46F1925E094D7C6ED479AD3AE5951B2113C
310
789FEE6C943839C1488B4C05DF079FE72A69D8C96C13AAD6B8631503449F83828872B949AC57D26200B826A308D316B4064D6E46FCDA41C05550DC9E483A00797BFD207EFB092A45DE9514C1BBD22178396BD39D891265658C238DEA00936C654E5E433CB65A26D9F6EDB5EBC14EBF49A45CB856E66048291F6939A9A81BB5
310
C8917738143CA680F4AA299D66A042CEB3354A2684DC9D8D178FE0D9B8B41CAAD720F880EE7EF93C0C18769E099ECC04D5A102C8049A8A05632F4DDF376CF1DE0F6BB65C2F8627B65A33C6BB62177CEBBDAD973006829F89F22E814B54F4BC2BE347F8AA8F681390B50FA73F804400B5F542E796F19FF974E7F78DB802FE05
310
E207504B0304140006080800CC70623B16AB87BA640500003C100000340000006662782F39464131463745442D413632322D343644302D413938332D3331353338454246344243312F6F626A656374732E786D6CAD575B6FA33818FD2B887DE6924B3BED8A326A92B68A663B534DD4D13E548A0C38942D60649B369D5FBFC7
310
600890A493BDE42160637FD7F31D7FF63E6FB3D478A55C242CBF3247B66B1A340F5994E4F19559CA8D75611A9F7D8F33263BCB4C232719BD32D5B4E97B316765A1A722BA21652A07B3B7B33F0D11D29C9A46981221AE4C113ED38CD8A4942CA2E2C58E882476BCD9DA23BB5ED8171B73523C0F841684D35CC252CCE79062D4
310
468DFA43D7747CCF51DF7D4FFDEB5593E3AB9CCA9FBEFE241792E4E19EB28198C968BAB8199F5D5A67D3E9C49A9E8F47D6EC76B6B0469F26EEFC7C3EBFBCBEB98462213924694B38DD98FE1D62C393D073EA4FADC5DAF04326852CCF6958F90F0F2B9BB5C48816348F90C7840A68EB78EDF68723159BCEE7891A6B95DDE9D3
310
BCEAEEE8086A6C6F9E5D4B59F0175C10A7A0820BAA5055C7473B5AE3CFDD452D602CD5DF12616444529E90D448938013FE6EFA58AA96F85E4F8C42275708571E98FE6827AF6B2B4AE3D7D83D64E5A64C53054DD3AF90BD06FEA9149565C94FCA0F6B834DC85599E4F2423B24DF0B6AFA979E534DFA9E7A4CC6FA631D486393
310
921829879BF5D781A373557BCB85E97FB90DB62B558F8795179C15944B051F40AB495CF35451D26A4727654E6D8033BD98EF82F21D91FF8AF2DD9982BCF1643BDD4EB516C9492E368C67C88DED563FC36D5EACF66DFF057C3658BDBFA69DF9578B3DA735B64F18C7F20770A9D45CFCF7FCF563D6456A277DBEF78A02637CA2
310
43B90A490AEAB94F72244481D24819A6C0E59B606BFA4B3025981DBB48EAB701D97BF19C577CC77F2D1B6C55A9EF3C732474C0B727303F625995056C3B02963D9EAC146BE78EC5FCEC7FA999EBC5EACBAAE41B12D27B4D2C0BBA49F244E2ECDC81B76B502F113D8F5EE8FB1BE3111CDD4FC2AA9B844CAB1288B68AB90A7CDC
310
1C166AB0D3DC5310625FCC14E779BFD0709F8890A629C9292B1B2DED31A4B0DA928CEE135085754027E3018A397D4D5427D15BD1330B677DC8934285AC3DF45A9EB68FF8F2B8FC0A509AFEECFD0FF2DE25CC6047F7214B195F07EFEB9A094D800F7BFAE8FED187B78EA8A3A400F115961BCAD1215E47C966530AF0EE8128FE
310
58CEBB996A8964FFA529A046635D9353B0336A8F700DDF46271A024E70B0B37C9DE01847591E54DED53D54202AB947E4076556AC49C6CA5C9E1226B7F1A7B1BE15DEED62C41B91E1B3E9AFAAA735036547343A925075041DF0A9979E893B391F8FCFA6967B3EFB644DCF6E5CEBFAE272625DCC6FAF3FB93793C5F90CE1EF57
310
407342756B10D1C489E8953CD1617E5CEECAD6F4EF8914CE5D5D504E5C3F1F9736DA62CFC11E00BCDDB8CC8A9466349744C1F75EBDA4DF09BA8A9E8C7A7E9991989E20E5DBDD6A6003664ED8F7A04A8DBE0DF6EAD9B9AA858342E47399053949D2C146EDB85DE4B176BB0965FBAC19BD19AA918E27FA50C1D22402E144464C
310
59462568E704B6E71915404CB72B8FF4EDE184DDAF753F284990D2C6926782963815403548A70C657FDEF80D2D9CEAA2AE4C1C76F60BFE74219A06527D6582DF6412526107381E55E353090704D085B52408D0933C4ED159D79BDA71BB4BC506F4831350EB6F979CD22D69BF7AC49B91A2C0A9DDA3D5CA36AD20FC478E37E6
310
1844E2352865EBCB6EA275A652E3836BE04EFB400BF1A2556F515F1FBB35B2AB35BD889C744FFA1004B5544B121E57F70215746DD2F5E2C1412B602CBF19455AC6C8E5E9922C4E01E65215385004546899059180EAFCF7A707CE7017CD8CDB0410789AB32C63B91E5CEBBBACB17AC6CD347A022D5075FD106377347AAABA7E
310
7D11590744509B44E205134DC1290F06580320F78E537D3D73540E06CB970B431F185308AD40BBD794D6D77003C5A36E8EAA54BA64597CD8F83BD552A080A365F7FF06504B0304140006080000CC70623B000000000000000000000000350000006662782F39464131463745442D413632322D343644302D413938332D3331
310
353338454246344243312F76657274696365732E62696E504B0304140006080800CC70623BF270F1330600000004000000360000006662782F39464131463745442D413632322D343644302D413938332D3331353338454246344243312F747269616E676C65732E62696E636660600000504B0304140006080000CC70623B
310
000000000000000000000000370000006662782F39464131463745442D413632322D343644302D413938332D3331353338454246344243312F617474726962757465732E62696E504B0304140006080800CC70623B08DA0BD19000000041010000360000006662782F39464131463745442D413632322D343644302D413938
310
332D3331353338454246344243312F6469726563746F72792E786D6C858F410AC3201045AF22B36F53E9A60B35CBEEBAE80D244E44489C6234F4F835464A48035D0DF398FF9F8AF63D0E6CC63039F212F8F9020C7D47C6792B21C5FE7403D62A1188E2E60C98D7234A5830286103A55745067B9D86B8A3CF9C7F90C11DE607
310
FB144396D7B6A82D282E9A152AD114D5EF2CB866EEE831B8EEA07A7BB5A8D7D61A2BAAEB7FD5F70921FF497D00504B0304140006080800CC70623B0D6EF93BFE000000A00100003B0000006662782F39464131463745442D413632322D343644302D413938332D3331353338454246344243312F7265736F75726365732F63
310
6F72652E786D6C8D50596E833010BD0A9ADFCA60B334011947A8694ED00B586642AC041B79A97AFC9A40A5F6AF3F33A3B7689E1E3F7DCD8FEC139DD7D6F4C0720A191A65476DA61E62B892236427C19DB5E1970C322367EC618541F0C9D9B8EC90B226A009093576C41D94DE63804C3DD2D18357379C652E63480A7FCF17A9
310
EE72C29CE5894E3AC17D702940B63D59270887DE46A7D0F36263058F518FBB468FE9A7BE6A7420864373B8D4873369AA8691FA421B3294352543C5CAF65C0F6FEF43CB8BD52C78D0F34F46E550061C419494B6843142CB0F5677F4B52BEB177AEC28E5C52AFF638ACBF84F53D42654E51E77B379102C05791282176B5F693D
310
CB4C7BED567C03504B010214000A0000080000CC70623B3DEE336E79000000790000001B00000000000000000000000000000000006175746F6465736B2D64657369676E2D7061636B6167652E786D6C504B01021400140006080800CC70623BD486FD9CA0000000F40000001300000000000000000000000000B20000005B
310
436F6E74656E745F54797065735D2E786D6C504B01021400140006080800CC70623B1EC5D7A3EB0000007C010000080000000000000000000000000083010000636F72652E786D6C504B01021400140006080800CC70623B55019EA25F0000007C000000070000000000000000000000000094020000636E782E786D6C504B
310
01021400140006080800CC70623B8C9102E971010000D40300000C00000000000000000000000000180300006662782F636F72652E786D6C504B01021400140006080800CC70623BFFEA85907E0000009D0000000B00000000000000000000000000B30400006662782F636E782E786D6C504B01021400140006080800CC70
310
623B4FEEA4082C0100001202000031000000000000000000000000005A0500006662782F39464131463745442D413632322D343644302D413938332D3331353338454246344243312F636F72652E786D6C504B01021400140006080800CC70623BAD7543B64E010000330300003000000000000000000000000000D5060000
310
6662782F39464131463745442D413632322D343644302D413938332D3331353338454246344243312F636E782E786D6C504B01021400140006080800CC70623B16AB87BA640500003C1000003400000000000000000000000000710800006662782F39464131463745442D413632322D343644302D413938332D3331353338
310
454246344243312F6F626A656374732E786D6C504B01021400140006080000CC70623B0000000000000000000000003500000000000000000000000000270E00006662782F39464131463745442D413632322D343644302D413938332D3331353338454246344243312F76657274696365732E62696E504B01021400140006
310
080800CC70623BF270F133060000000400000036000000000000000000000000007A0E00006662782F39464131463745442D413632322D343644302D413938332D3331353338454246344243312F747269616E676C65732E62696E504B01021400140006080000CC70623B0000000000000000000000003700000000000000
310
000000000000D40E00006662782F39464131463745442D413632322D343644302D413938332D3331353338454246344243312F617474726962757465732E62696E504B01021400140006080800CC70623B08DA0BD190000000410100003600000000000000000000000000290F00006662782F39464131463745442D413632
310
322D343644302D413938332D3331353338454246344243312F6469726563746F72792E786D6C504B01021400140006080800CC70623B0D6EF93BFE000000A00100003B000000000000000000000000000D1000006662782F39464131463745442D413632322D343644302D413938332D3331353338454246344243312F7265
310
736F75726365732F636F72652E786D6C504B0506000000000E000E0080040000641100000000
  0
XRECORD
  5
175
102
{ACAD_REACTORS
330
173
102
}
330
173
100
AcDbXrecord
280
     1
270
     1
271
     1
  0
XRECORD
  5
174
102
{ACAD_REACTORS
330
173
102
}
330
173
100
AcDbXrecord
280
     1
270
     1
271
     1
  0
XRECORD
  5
1FB
102
{ACAD_REACTORS
330
173
102
}
330
173
100
AcDbXrecord
280
     1
 70
     0
 90
1673772943
  1
ECE7A1D2-D628-4531-984C-D00F80459256
310
504B03040A0000080000CC70623B3DEE336E79000000790000001B0000006175746F6465736B2D64657369676E2D7061636B6167652E786D6C3C3F786D6C2076657273696F6E3D22312E302220656E636F64696E673D227574662D3822203F3E3C666F726D6174733E3C666F726D61743E687474703A2F2F736368656D612E
310
6175746F6465736B2E636F6D2F64657369676E2D7061636B6167652F323030393C2F666F726D61743E3C2F666F726D6174733E504B0304140006080800CC70623BD486FD9CA0000000F4000000130000005B436F6E74656E745F54797065735D2E786D6C7D8EC10E82300C865F65E91D8A1E8C310C0EEA1BF002731658846E
310
D98AC1B77784ABF1D8FE5FBFBF75BBCE937A534CCEB38643598122B6FEE978D0B0485F9C41B54DDD7D022595594E1A469170414C76A4D9A4D207E29CF43ECE46F218070CC6BECC4078ACAA135ACF422C856C0E68EA1BF5669944DDD7BCDE7B1F8E415D77AECB980613C2E4AC91FC167A2B244592486606FC29C8FD7F045B9A
310
EF7053A7E60B504B0304140006080800CC70623BD9DDAED0EC0000007C01000008000000636F72652E786D6C8D90416EC3201045AF82665B61836D9CD8C2444DD39CA01740405C94182C03558F5F9C3852BBEB6A467FFE9B197D7EF89E6EE8CB2CC17A37002D0820E394D7D68D03A478C17B4007C117EFE32F1B20272733C0
310
2A83E0E3E2D3BC49CABB685CCCAAF3DA6CA20CC14440EA969B0182FA34932C648AD911AEC52CD5558EA6A0CF2EC329598D1E47ACCEFBECC59A050463A7EA5833865FEBDD0E37353BE3EE8DBDE3F6786A48D375FBF6CC78B9C282473B3DEFABC5C86834888A900E538A49F5419B9EB47DD5BC907D4F082F57FB1F28CDFA9F50
310
B22ED6D5F6EE030B20687EE43E10BC5CB3C8E51E54AE6B6EE207504B0304140006080800CC70623B55019EA25F0000007C00000007000000636E782E786D6C4DCB3B0E80201045D1AD90E915ED2CF8AC45050C11660C8261F98AB1B07AC9C97D42D718D865D3E909258CFD00CCE24AC6E326A164D74DC0B4128928FF326038
310
472BA13128B1252AC747C6BAB984FC68F0B87FE8960A5C09FE86CFB69FBA01504B0304140006080800CC70623BA24EB22D72010000D40300000C0000006662782F636F72652E786D6CC5535B6E833010BC8AE5DF0A6C5E49888CA3A6694ED00B38E05014B091B1518EDFE511A5A9D228FD2A1F60CDEC7A67C6986DCE4D8D7A
310
69BA4AAB0C073EC548AA5C17952A33ECECD15B61B4E1CC686DBF9561A44423333CC098B3D268D7CE50AE9595CA02AA74216750749DB418E5352C32DCE59FB211BE70162ABA93DF8AFC244AE9073ED050C759670D0840D390E18DF9F1706664C23973AE2A66B62A605A75ACA4C13C4976E1364A12EF355A2EBD384AF65EFA96
310
BC7B8BED2EA6719AAE16FB8491A199335B351775B991C2CA02F390D2D40B028F861F41BCA68B7518BFD0D59A524686F29B26D7164F36B94AD9289CE54E6D1DE6010819891F6E21228B3AD1831EC219194284CF98F06DD01008846CC5A1BEF83801D4CBDC6A1303536877A57A513B0953A94FC707FDBE6064EA84A9E3E6E0FA
310
EE8CF0E9198F7784A316AA0413C2C2F2E0ECA0934D1AE6D05A69BCDE9E91D2A611F573361E38FC1375157F5752AE6B6DFE4B11990F88CCBF0719EE23FF02504B0304140006080800CC70623B408A7D3B7C0000009D0000000B0000006662782F636E782E786D6C4DCCD10A83201886E15B91FFDC552A92A0064DBC8F581632
310
D3703A76F9ABD1C18E3E78F878E5F0D9027ABBFCF2292AE86E2D20171F69F6715550CB827B40839639A5F2770314A7CD293819B45C73AAFB45B35BA61ACAA1C1C7E7855C58C15BC331339661262CC762340413D68D77DA5B42298546CBE6573AF60CEB2F504B0304140006080800CC70623B449FB9BD290100001202000031
310
0000006662782F36394639363044362D344446342D343946362D394244322D3234314243333846323333332F636F72652E786D6C8D515B6EC32010BC0AE22B55850D98B871848994463E412FE002495162B07854397EA176A4F62F3F2C9A9D991D587EB84F37F0AD7D30CEF6905418026DA553C65E7A98E219ED203808EE9D
310
8B7F6810D871D23D2C3014FCE25D9A57483A1BB58D19B54EE9151C43D0110279CB971E06F9A5A7B11A53CC8C70ADE6515EC78BAE4895DB992778883E0700CB907242D17643D7E2538BD869608875438BBAE38922CAC8F1BDD90DB4691A5E2F42C153326A951B95E398B3D1FE599322163C9AE9115F7A3D46ADA0A018778810
310
84E907617BDCEE297BC5BB3DC6BC2EF47FA234AB2745C9D8D8D035EE220B50105E2F0DC1954B9FB747187D9F9D8FA0CCDB042D5FA0C015C65B42DF78BD10F3F3B363CB56C7109DCFDFBBB97E662ED92EB62D13BC2E1BCAE5777DB9966D8A1F504B0304140006080800CC70623BAD7543B64E01000033030000300000006662
310
782F36394639363044362D344446342D343946362D394244322D3234314243333846323333332F636E782E786D6CD593CD6EC32010845F0571AD6CE3D48AD20813A9873E410FBD12D82434182C7EAAE6EDBB2424CD25871E7B41D6EC30B3FA84F9E67BB2E40B4234DE8DB46F1925E094D7C6ED479AD3AE5951B2113C789FEE
310
6C943839C1488B4C05DF079FE72A69D8C96C13AAD6B8631503449F83828872B949AC57D26200B826A308D316B4064D6E46FCDA41C05550DC9E483A00797BFD207EFB092A45DE9514C1BBD22178396BD39D891265658C238DEA00936C654E5E433CB65A26D9F6EDB5EBC14EBF49A45CB856E66048291F6939A9A81BB5C89177
310
38143CA680F4AA299D66A042CEB3354A2684DC9D8D178FE0D9B8B41CAAD720F880EE7EF93C0C18769E099ECC04D5A102C8049A8A05632F4DDF376CF1DE0F6BB65C2F8627B65A33C6BB62177CEBBDAD973006829F89F22E814B54F4BC2BE347F8AA8F681390B50FA73F804400B5F542E796F19FF974E7F78DB802FE05E20750
310
4B0304140006080800CC70623B8D05915C650500003B100000340000006662782F36394639363044362D344446342D343946362D394244322D3234314243333846323333332F6F626A656374732E786D6CAD575B6FA33814FE2B887D06429276DA1565D4266D158D3A339A6846FB502932E050B66023DB74D2FDF5FB190C01
310
9276B2973C046C8ECFF53B17071F77456EBD502133CEAE6CDF9DD81665314F32965ED995DA3A17B6F5310C04E7AA47665B8C14F4CAD6DB7618A48257A5D94AE89654B91AEDDEDDFC61C998326A5B714EA4BCB265FC440BE2924AF184CA6737218AB8E976E7FA6E4338649B0A523E8D98964450A6A029F619B8588D52FE7039
310
B1BD30F0F4F730D0FF866AF6369557DB33949F31A9088B0F848DD8CCFCF9F2767A76E99CCDE733677E3EF59D9BBB9BA5E37F984D16E78BC5E5F5ED25044B25C0C96822E8D60EEFE11B91C581D77CEA34368A1F5329E68CD1B8B61F16D63A1B8E092D294B10C78C4A48EB593D192E7DED9BDEE7995E1B91FDEDD3ACEA9FE831
310
6A756F9F7D4D79F4274C90A7A04248AA51D5F8C718DAE06FB2F75AC4796EBE65D22A88A22223B995679120E2D50E41AA49C260C046A35368846B0BECD0DFF3EBEB8AD4F835768F69B9ADF25C43D30E6B646F807FAA64AD59F61715C7A54127C4AACA98BA3006A9D792DAE165E0D59B61A01FB3A9F9D838D2DAE62445C86166
310
F37564E842E7DE6A69879FEEA2DD5AE7E371E1A5E025154AC307D06A03D73EB5978C58FFA4C8E9033066E0F3BD53BEC1F39F91BE7B55103791EDE6BBB991A2046172CB4581D8B893FA674DDA17A77B3B7C413D1B511FD2743BFF8A38F03A658705E3ADF8015C3A3417FF3D7E439FF591DA0B5F18BC20C1B8981957AE6392A3
310
F43C640C01D1A0B4728E2DD4F26DB4B3C3152A252A3B4E913CEC1C72F012782FF88EFF8637AA552DBEF76408E8A8DE9E50F9E1CB3A2DA0DB1B6039A893B56063DC5B3E3FFB5F72E67AB9FEB4AEC496C4F4C1149625DD662C53E89D7BF0F6151A046260D1337DFDC94502430F83B0EE07A130A224BCAD7DAE1D9FB6CD422FF6
310
920702629C4BB9AE79C12F243C6432A6794E18E5552BA56B431AAB5D91317302B2B071E86C3A42B1A02F999E24061403B5D0EB639195DA655DD3EBEAB4FB862DDF579F014AD0E73C22F99E28DA57FB98E75C6CA2D74D53086D600F4786E0FE3144B771A8A7B900F03594DB8A633CBC49B2EDB69228BB479CF863B5E807AAAB
310
23872F6DFEB4129B949CA33823F58830E86D65621E10047D9DB34D862E8EAC3C2ABC2F7B2C40D67CDFE01F5545B92105AF983AC54D93D69E56FB8E797F88913F898A9FEC705D3F9D1B54EC8426FB500D40A03BD0119B06E1B95DDC7EB8F6975367793EBD70E66733DFB9BC982F9CE564727731999F5D4ECFCE3B8D6A4DC2A0
310
6D50FD148437D110834A64C6CDDF57FBACB5C307A2A477DFE4939736CFEF2B175371E0E10CF0DD1D5C15654E0BCA14D1E87DD02FF93782A162C0A3D95F1524A52770F972BF1EE9809D13CE7DD599467F8ECE9ADD85CE85A34CD45355448C64F9E8A031DC2D596ACC6E5DD93D9B82DE2EF5CAF81363A8E47996A0DE24564A79
310
4115AACE09C55E14540231FDA13C319787134EBF34E3A022514E5B4D9E0826E25C02D5805B15ABE1BEF51B26383D445DD9E875EE33FE4C22DA16427D65A3BCA92CA6D28DD01DF5DC53330704308475351050232CCD31583787BA75774AFB06E5070DD0C8EF484E19968C5D83BA5B90B244D31E54D55A372320FE4786B7EA58
310
44E135AA5467CB7EA333A61683CC6A8C3257034C10CF46F40EF9F5BE59BE5BD30C3C72D235E95D10345C1D45445A5F0BB47E46A5EBE5570F9380B5FA629579952296A773720405982B9DE04011506178964401AA8BDF1FBF0A8EAB6861DD6580C0E38217056766716DAEB2D6FA0917D3E4116581EADB879C4E7CFFB11EFACD
310
3D641311495D92C8676CB409A72D18610D803CE8A626049E8EC1887CB5B44CC39883690DDA8399B4B9855B481E7D71D4A9D22F96E5BB73BF5793020C02137BF837504B0304140006080000CC70623B000000000000000000000000350000006662782F36394639363044362D344446342D343946362D394244322D32343142
310
43333846323333332F76657274696365732E62696E504B0304140006080800CC70623BF270F1330600000004000000360000006662782F36394639363044362D344446342D343946362D394244322D3234314243333846323333332F747269616E676C65732E62696E636660600000504B0304140006080000CC70623B0000
310
00000000000000000000370000006662782F36394639363044362D344446342D343946362D394244322D3234314243333846323333332F617474726962757465732E62696E504B0304140006080800CC70623B08DA0BD19000000041010000360000006662782F36394639363044362D344446342D343946362D394244322D
310
3234314243333846323333332F6469726563746F72792E786D6C858F410AC3201045AF22B36F53E9A60B35CBEEBAE80D244E44489C6234F4F835464A48035D0DF398FF9F8AF63D0E6CC63039F212F8F9020C7D47C6792B21C5FE7403D62A1188E2E60C98D7234A5830286103A55745067B9D86B8A3CF9C7F90C11DE607FB14
310
4396D7B6A82D282E9A152AD114D5EF2CB866EEE831B8EEA07A7BB5A8D7D61A2BAAEB7FD5F70921FF497D00504B0304140006080800CC70623BCA768048FE000000A00100003B0000006662782F36394639363044362D344446342D343946362D394244322D3234314243333846323333332F7265736F75726365732F636F72
310
652E786D6C8D50596E833010BD0A9ADFCA60D600328E9AA639412F609909B1126CE4A5EAF16B0295DABFFECC8CDEA2797AECF8353F924FB44E193D409E5248504B332A3D0D10FC95B4901C39B3C6F85F3248B49871801506CE266BC2B243D2688FDA47549B11775038871E12F988C7004EDE7016A9083E2ADC3D5D84BC8B09
310
D33C8D74D471E6BC8D0192EDC93A815B742658898E651BCB59086ADC356A8C3FD555A1055ED7E7E254D615792D0F075295F585746FF53B694EE78A565DD736979A65AB9933AFE69F8CD2A2F038022F28ED489E135A7CE4554F9BBEA85E68DB53CAB255FEC71496F19FA6A0B42F8B3DEE6673C0F318E4497096AD7DC5F52C33
310
EEB55BFE0D504B010214000A0000080000CC70623B3DEE336E79000000790000001B00000000000000000000000000000000006175746F6465736B2D64657369676E2D7061636B6167652E786D6C504B01021400140006080800CC70623BD486FD9CA0000000F40000001300000000000000000000000000B20000005B436F
310
6E74656E745F54797065735D2E786D6C504B01021400140006080800CC70623BD9DDAED0EC0000007C010000080000000000000000000000000083010000636F72652E786D6C504B01021400140006080800CC70623B55019EA25F0000007C000000070000000000000000000000000095020000636E782E786D6C504B0102
310
1400140006080800CC70623BA24EB22D72010000D40300000C00000000000000000000000000190300006662782F636F72652E786D6C504B01021400140006080800CC70623B408A7D3B7C0000009D0000000B00000000000000000000000000B50400006662782F636E782E786D6C504B01021400140006080800CC70623B
310
449FB9BD290100001202000031000000000000000000000000005A0500006662782F36394639363044362D344446342D343946362D394244322D3234314243333846323333332F636F72652E786D6C504B01021400140006080800CC70623BAD7543B64E010000330300003000000000000000000000000000D20600006662
310
782F36394639363044362D344446342D343946362D394244322D3234314243333846323333332F636E782E786D6C504B01021400140006080800CC70623B8D05915C650500003B10000034000000000000000000000000006E0800006662782F36394639363044362D344446342D343946362D394244322D32343142433338
310
46323333332F6F626A656374732E786D6C504B01021400140006080000CC70623B0000000000000000000000003500000000000000000000000000250E00006662782F36394639363044362D344446342D343946362D394244322D3234314243333846323333332F76657274696365732E62696E504B010214001400060808
310
00CC70623BF270F13306000000040000003600000000000000000000000000780E00006662782F36394639363044362D344446342D343946362D394244322D3234314243333846323333332F747269616E676C65732E62696E504B01021400140006080000CC70623B00000000000000000000000037000000000000000000
310
00000000D20E00006662782F36394639363044362D344446342D343946362D394244322D3234314243333846323333332F617474726962757465732E62696E504B01021400140006080800CC70623B08DA0BD190000000410100003600000000000000000000000000270F00006662782F36394639363044362D344446342D
310
343946362D394244322D3234314243333846323333332F6469726563746F72792E786D6C504B01021400140006080800CC70623BCA768048FE000000A00100003B000000000000000000000000000B1000006662782F36394639363044362D344446342D343946362D394244322D3234314243333846323333332F7265736F
310
75726365732F636F72652E786D6C504B0506000000000E000E0080040000621100000000
  0
XRECORD
  5
176
102
{ACAD_REACTORS
330
173
102
}
330
173
100
AcDbXrecord
280
     1
270
     1
271
     1
  0
XRECORD
  5
177
102
{ACAD_REACTORS
330
173
102
}
330
173
100
AcDbXrecord
280
     1
270
     1
271
     1
  0
XRECORD
  5
15FD
102
{ACAD_REACTORS
330
15FC
102
}
330
15FC
100
AcDbXrecord
280
     1
102
DISPLAYNAME
  1
Metric50
102
FLAGS
 90
        0
  0
CELLSTYLEMAP
  5
15CA
102
{ACAD_REACTORS
330
162
102
}
330
162
100
AcDbCellStyleMap
 90
        3
300
CELLSTYLE
  1
TABLEFORMAT_BEGIN
 90
        5
170
     1
 91
        0
 92
    32768
 62
   257
 93
        1
300
CONTENTFORMAT
  1
CONTENTFORMAT_BEGIN
 90
        0
 91
        0
 92
      512
 93
        0
300

 40
0.0
140
1.0
 94
        5
 62
     0
340
11
144
6.0
309
CONTENTFORMAT_END
171
     1
301
MARGIN
  1
CELLMARGIN_BEGIN
 40
1.5
 40
1.5
 40
1.5
 40
1.5
 40
4.5
 40
4.5
309
CELLMARGIN_END
 94
        6
 95
        1
302
GRIDFORMAT
  1
GRIDFORMAT_BEGIN
 90
        0
 91
        1
 62
     0
 92
       -2
340
14
 93
        0
 40
1.125
309
GRIDFORMAT_END
 95
        2
302
GRIDFORMAT
  1
GRIDFORMAT_BEGIN
 90
        0
 91
        1
 62
     0
 92
       -2
340
14
 93
        0
 40
1.125
309
GRIDFORMAT_END
 95
        4
302
GRIDFORMAT
  1
GRIDFORMAT_BEGIN
 90
        0
 91
        1
 62
     0
 92
       -2
340
14
 93
        0
 40
1.125
309
GRIDFORMAT_END
 95
        8
302
GRIDFORMAT
  1
GRIDFORMAT_BEGIN
 90
        0
 91
        1
 62
     0
 92
       -2
340
14
 93
        0
 40
1.125
309
GRIDFORMAT_END
 95
       16
302
GRIDFORMAT
  1
GRIDFORMAT_BEGIN
 90
        0
 91
        1
 62
     0
 92
       -2
340
14
 93
        0
 40
1.125
309
GRIDFORMAT_END
 95
       32
302
GRIDFORMAT
  1
GRIDFORMAT_BEGIN
 90
        0
 91
        1
 62
     0
 92
       -2
340
14
 93
        0
 40
1.125
309
GRIDFORMAT_END
309
TABLEFORMAT_END
  1
CELLSTYLE_BEGIN
 90
        1
 91
        1
300
_TITLE
309
CELLSTYLE_END
300
CELLSTYLE
  1
TABLEFORMAT_BEGIN
 90
        5
170
     1
 91
        0
 92
        0
 62
   257
 93
        1
300
CONTENTFORMAT
  1
CONTENTFORMAT_BEGIN
 90
        0
 91
        0
 92
      512
 93
        0
300

 40
0.0
140
1.0
 94
        5
 62
     0
340
11
144
4.5
309
CONTENTFORMAT_END
171
     1
301
MARGIN
  1
CELLMARGIN_BEGIN
 40
1.5
 40
1.5
 40
1.5
 40
1.5
 40
4.5
 40
4.5
309
CELLMARGIN_END
 94
        6
 95
        1
302
GRIDFORMAT
  1
GRIDFORMAT_BEGIN
 90
        0
 91
        1
 62
     0
 92
       -2
340
14
 93
        0
 40
1.125
309
GRIDFORMAT_END
 95
        2
302
GRIDFORMAT
  1
GRIDFORMAT_BEGIN
 90
        0
 91
        1
 62
     0
 92
       -2
340
14
 93
        0
 40
1.125
309
GRIDFORMAT_END
 95
        4
302
GRIDFORMAT
  1
GRIDFORMAT_BEGIN
 90
        0
 91
        1
 62
     0
 92
       -2
340
14
 93
        0
 40
1.125
309
GRIDFORMAT_END
 95
        8
302
GRIDFORMAT
  1
GRIDFORMAT_BEGIN
 90
        0
 91
        1
 62
     0
 92
       -2
340
14
 93
        0
 40
1.125
309
GRIDFORMAT_END
 95
       16
302
GRIDFORMAT
  1
GRIDFORMAT_BEGIN
 90
        0
 91
        1
 62
     0
 92
       -2
340
14
 93
        0
 40
1.125
309
GRIDFORMAT_END
 95
       32
302
GRIDFORMAT
  1
GRIDFORMAT_BEGIN
 90
        0
 91
        1
 62
     0
 92
       -2
340
14
 93
        0
 40
1.125
309
GRIDFORMAT_END
309
TABLEFORMAT_END
  1
CELLSTYLE_BEGIN
 90
        2
 91
        1
300
_HEADER
309
CELLSTYLE_END
300
CELLSTYLE
  1
TABLEFORMAT_BEGIN
 90
        5
170
     1
 91
        0
 92
        0
 62
   257
 93
        1
300
CONTENTFORMAT
  1
CONTENTFORMAT_BEGIN
 90
        0
 91
        0
 92
      512
 93
        0
300

 40
0.0
140
1.0
 94
        2
 62
     0
340
11
144
4.5
309
CONTENTFORMAT_END
171
     1
301
MARGIN
  1
CELLMARGIN_BEGIN
 40
1.5
 40
1.5
 40
1.5
 40
1.5
 40
4.5
 40
4.5
309
CELLMARGIN_END
 94
        6
 95
        1
302
GRIDFORMAT
  1
GRIDFORMAT_BEGIN
 90
        0
 91
        1
 62
     0
 92
       -2
340
14
 93
        0
 40
1.125
309
GRIDFORMAT_END
 95
        2
302
GRIDFORMAT
  1
GRIDFORMAT_BEGIN
 90
        0
 91
        1
 62
     0
 92
       -2
340
14
 93
        0
 40
1.125
309
GRIDFORMAT_END
 95
        4
302
GRIDFORMAT
  1
GRIDFORMAT_BEGIN
 90
        0
 91
        1
 62
     0
 92
       -2
340
14
 93
        0
 40
1.125
309
GRIDFORMAT_END
 95
        8
302
GRIDFORMAT
  1
GRIDFORMAT_BEGIN
 90
        0
 91
        1
 62
     0
 92
       -2
340
14
 93
        0
 40
1.125
309
GRIDFORMAT_END
 95
       16
302
GRIDFORMAT
  1
GRIDFORMAT_BEGIN
 90
        0
 91
        1
 62
     0
 92
       -2
340
14
 93
        0
 40
1.125
309
GRIDFORMAT_END
 95
       32
302
GRIDFORMAT
  1
GRIDFORMAT_BEGIN
 90
        0
 91
        1
 62
     0
 92
       -2
340
14
 93
        0
 40
1.125
309
GRIDFORMAT_END
309
TABLEFORMAT_END
  1
CELLSTYLE_BEGIN
 90
        3
 91
        2
300
_DATA
309
CELLSTYLE_END
  0
XRECORD
  5
15D7
102
{ACAD_REACTORS
330
15D6
102
}
330
15D6
100
AcDbXrecord
280
     1
102
RTVSPost2010Prop28
280
     1
102
RTVSPost2010PropOp28
 70
     1
102
RTVSPost2010Prop29
280
     1
102
RTVSPost2010PropOp29
 70
     1
102
RTVSPost2010Prop30
280
     0
102
RTVSPost2010PropOp30
 70
     1
102
RTVSPost2010Prop31
280
     0
102
RTVSPost2010PropOp31
 70
     1
102
RTVSPost2010Prop32
280
     0
102
RTVSPost2010PropOp32
 70
     1
102
RTVSPost2010Prop33
280
     0
102
RTVSPost2010PropOp33
 70
     1
102
RTVSPost2010Prop34
280
     0
102
RTVSPost2010PropOp34
 70
     1
102
RTVSPost2010Prop35
280
     0
102
RTVSPost2010PropOp35
 70
     1
102
RTVSPost2010Prop36
280
     0
102
RTVSPost2010PropOp36
 70
     1
102
RTVSPost2010Prop37
 90
       50
102
RTVSPost2010PropOp37
 70
     1
102
RTVSPost2010Prop38
140
0.0
102
RTVSPost2010PropOp38
 70
     1
102
RTVSPost2010Prop39
140
1.0
102
RTVSPost2010PropOp39
 70
     1
102
RTVSPost2010Prop40
 90
        0
102
RTVSPost2010PropOp40
 70
     1
102
RTVSPost2010Prop41ColorIndex
 90
       18
102
RTVSPost2010Prop41ColorRGB
 90
        0
102
RTVSPost2010PropOp41
 70
     1
102
RTVSPost2010Prop42
 90
       50
102
RTVSPost2010PropOp42
 70
     1
102
RTVSPost2010Prop43
 90
        3
102
RTVSPost2010PropOp43
 70
     1
102
RTVSPost2010Prop44ColorIndex
 90
        5
102
RTVSPost2010Prop44ColorRGB
 90
      255
102
RTVSPost2010PropOp44
 70
     1
102
RTVSPost2010Prop45
280
     0
102
RTVSPost2010PropOp45
 70
     1
102
RTVSPost2010Prop46
 90
       50
102
RTVSPost2010PropOp46
 70
     1
102
RTVSPost2010Prop47
 90
       50
102
RTVSPost2010PropOp47
 70
     1
102
RTVSPost2010Prop48
 90
       50
102
RTVSPost2010PropOp48
 70
     1
102
RTVSPost2010Prop49
280
     0
102
RTVSPost2010PropOp49
 70
     1
102
RTVSPost2010Prop50
 90
       50
102
RTVSPost2010PropOp50
 70
     1
102
RTVSPost2010Prop51ColorIndex
 90
      256
102
RTVSPost2010Prop51ColorRGB
 90
-16777216
102
RTVSPost2010PropOp51
 70
     0
102
RTVSPost2010Prop52
140
1.0
102
RTVSPost2010PropOp52
 70
     0
102
RTVSPost2010Prop53
 90
        2
102
RTVSPost2010PropOp53
 70
     1
102
RTVSPost2010Prop54
  1
strokes_ogs.tif
102
RTVSPost2010PropOp54
 70
     1
102
RTVSPost2010Prop55
280
     0
102
RTVSPost2010PropOp55
 70
     1
102
RTVSPost2010Prop56
140
1.0
102
RTVSPost2010PropOp56
 70
     1
102
RTVSPost2010Prop57
140
1.0
102
RTVSPost2010PropOp57
 70
     1
  0
XRECORD
  5
15D5
102
{ACAD_REACTORS
330
15D4
102
}
330
15D4
100
AcDbXrecord
280
     1
102
RTVSPost2010Prop28
280
     0
102
RTVSPost2010PropOp28
 70
     1
102
RTVSPost2010Prop29
280
     1
102
RTVSPost2010PropOp29
 70
     1
102
RTVSPost2010Prop30
280
     1
102
RTVSPost2010PropOp30
 70
     1
102
RTVSPost2010Prop31
280
     0
102
RTVSPost2010PropOp31
 70
     1
102
RTVSPost2010Prop32
280
     0
102
RTVSPost2010PropOp32
 70
     1
102
RTVSPost2010Prop33
280
     0
102
RTVSPost2010PropOp33
 70
     1
102
RTVSPost2010Prop34
280
     0
102
RTVSPost2010PropOp34
 70
     1
102
RTVSPost2010Prop35
280
     0
102
RTVSPost2010PropOp35
 70
     1
102
RTVSPost2010Prop36
280
     0
102
RTVSPost2010PropOp36
 70
     1
102
RTVSPost2010Prop37
 90
       50
102
RTVSPost2010PropOp37
 70
     1
102
RTVSPost2010Prop38
140
0.0
102
RTVSPost2010PropOp38
 70
     1
102
RTVSPost2010Prop39
140
1.0
102
RTVSPost2010PropOp39
 70
     1
102
RTVSPost2010Prop40
 90
        0
102
RTVSPost2010PropOp40
 70
     1
102
RTVSPost2010Prop41ColorIndex
 90
       18
102
RTVSPost2010Prop41ColorRGB
 90
        0
102
RTVSPost2010PropOp41
 70
     1
102
RTVSPost2010Prop42
 90
       50
102
RTVSPost2010PropOp42
 70
     1
102
RTVSPost2010Prop43
 90
        3
102
RTVSPost2010PropOp43
 70
     1
102
RTVSPost2010Prop44ColorIndex
 90
        5
102
RTVSPost2010Prop44ColorRGB
 90
      255
102
RTVSPost2010PropOp44
 70
     1
102
RTVSPost2010Prop45
280
     0
102
RTVSPost2010PropOp45
 70
     1
102
RTVSPost2010Prop46
 90
       50
102
RTVSPost2010PropOp46
 70
     1
102
RTVSPost2010Prop47
 90
       50
102
RTVSPost2010PropOp47
 70
     1
102
RTVSPost2010Prop48
 90
       50
102
RTVSPost2010PropOp48
 70
     1
102
RTVSPost2010Prop49
280
     0
102
RTVSPost2010PropOp49
 70
     1
102
RTVSPost2010Prop50
 90
       50
102
RTVSPost2010PropOp50
 70
     1
102
RTVSPost2010Prop51ColorIndex
 90
      256
102
RTVSPost2010Prop51ColorRGB
 90
-16777216
102
RTVSPost2010PropOp51
 70
     0
102
RTVSPost2010Prop52
140
1.0
102
RTVSPost2010PropOp52
 70
     0
102
RTVSPost2010Prop53
 90
        2
102
RTVSPost2010PropOp53
 70
     1
102
RTVSPost2010Prop54
  1
strokes_ogs.tif
102
RTVSPost2010PropOp54
 70
     1
102
RTVSPost2010Prop55
280
     0
102
RTVSPost2010PropOp55
 70
     1
102
RTVSPost2010Prop56
140
1.0
102
RTVSPost2010PropOp56
 70
     1
102
RTVSPost2010Prop57
140
1.0
102
RTVSPost2010PropOp57
 70
     1
  0
XRECORD
  5
15E3
102
{ACAD_REACTORS
330
15E2
102
}
330
15E2
100
AcDbXrecord
280
     1
102
RTVSPost2010Prop28
280
     0
102
RTVSPost2010PropOp28
 70
     1
102
RTVSPost2010Prop29
280
     1
102
RTVSPost2010PropOp29
 70
     1
102
RTVSPost2010Prop30
280
     1
102
RTVSPost2010PropOp30
 70
     1
102
RTVSPost2010Prop31
280
     0
102
RTVSPost2010PropOp31
 70
     1
102
RTVSPost2010Prop32
280
     0
102
RTVSPost2010PropOp32
 70
     1
102
RTVSPost2010Prop33
280
     0
102
RTVSPost2010PropOp33
 70
     1
102
RTVSPost2010Prop34
280
     0
102
RTVSPost2010PropOp34
 70
     1
102
RTVSPost2010Prop35
280
     0
102
RTVSPost2010PropOp35
 70
     1
102
RTVSPost2010Prop36
280
     0
102
RTVSPost2010PropOp36
 70
     1
102
RTVSPost2010Prop37
 90
       50
102
RTVSPost2010PropOp37
 70
     1
102
RTVSPost2010Prop38
140
0.0
102
RTVSPost2010PropOp38
 70
     1
102
RTVSPost2010Prop39
140
1.0
102
RTVSPost2010PropOp39
 70
     1
102
RTVSPost2010Prop40
 90
        0
102
RTVSPost2010PropOp40
 70
     1
102
RTVSPost2010Prop41ColorIndex
 90
       18
102
RTVSPost2010Prop41ColorRGB
 90
        0
102
RTVSPost2010PropOp41
 70
     1
102
RTVSPost2010Prop42
 90
       50
102
RTVSPost2010PropOp42
 70
     1
102
RTVSPost2010Prop43
 90
        3
102
RTVSPost2010PropOp43
 70
     1
102
RTVSPost2010Prop44ColorIndex
 90
        5
102
RTVSPost2010Prop44ColorRGB
 90
      255
102
RTVSPost2010PropOp44
 70
     1
102
RTVSPost2010Prop45
280
     0
102
RTVSPost2010PropOp45
 70
     1
102
RTVSPost2010Prop46
 90
       50
102
RTVSPost2010PropOp46
 70
     1
102
RTVSPost2010Prop47
 90
       50
102
RTVSPost2010PropOp47
 70
     1
102
RTVSPost2010Prop48
 90
       50
102
RTVSPost2010PropOp48
 70
     1
102
RTVSPost2010Prop49
280
     0
102
RTVSPost2010PropOp49
 70
     1
102
RTVSPost2010Prop50
 90
       50
102
RTVSPost2010PropOp50
 70
     1
102
RTVSPost2010Prop51ColorIndex
 90
      256
102
RTVSPost2010Prop51ColorRGB
 90
-16777216
102
RTVSPost2010PropOp51
 70
     0
102
RTVSPost2010Prop52
140
1.0
102
RTVSPost2010PropOp52
 70
     0
102
RTVSPost2010Prop53
 90
        2
102
RTVSPost2010PropOp53
 70
     1
102
RTVSPost2010Prop54
  1
strokes_ogs.tif
102
RTVSPost2010PropOp54
 70
     1
102
RTVSPost2010Prop55
280
     0
102
RTVSPost2010PropOp55
 70
     1
102
RTVSPost2010Prop56
140
1.0
102
RTVSPost2010PropOp56
 70
     1
102
RTVSPost2010Prop57
140
1.0
102
RTVSPost2010PropOp57
 70
     1
  0
XRECORD
  5
15EB
102
{ACAD_REACTORS
330
15EA
102
}
330
15EA
100
AcDbXrecord
280
     1
102
RTVSPost2010Prop28
280
     0
102
RTVSPost2010PropOp28
 70
     1
102
RTVSPost2010Prop29
280
     1
102
RTVSPost2010PropOp29
 70
     1
102
RTVSPost2010Prop30
280
     1
102
RTVSPost2010PropOp30
 70
     1
102
RTVSPost2010Prop31
280
     0
102
RTVSPost2010PropOp31
 70
     1
102
RTVSPost2010Prop32
280
     0
102
RTVSPost2010PropOp32
 70
     1
102
RTVSPost2010Prop33
280
     0
102
RTVSPost2010PropOp33
 70
     1
102
RTVSPost2010Prop34
280
     0
102
RTVSPost2010PropOp34
 70
     1
102
RTVSPost2010Prop35
280
     0
102
RTVSPost2010PropOp35
 70
     1
102
RTVSPost2010Prop36
280
     0
102
RTVSPost2010PropOp36
 70
     1
102
RTVSPost2010Prop37
 90
       50
102
RTVSPost2010PropOp37
 70
     1
102
RTVSPost2010Prop38
140
0.0
102
RTVSPost2010PropOp38
 70
     1
102
RTVSPost2010Prop39
140
1.0
102
RTVSPost2010PropOp39
 70
     1
102
RTVSPost2010Prop40
 90
        0
102
RTVSPost2010PropOp40
 70
     1
102
RTVSPost2010Prop41ColorIndex
 90
       18
102
RTVSPost2010Prop41ColorRGB
 90
        0
102
RTVSPost2010PropOp41
 70
     1
102
RTVSPost2010Prop42
 90
       50
102
RTVSPost2010PropOp42
 70
     1
102
RTVSPost2010Prop43
 90
        3
102
RTVSPost2010PropOp43
 70
     1
102
RTVSPost2010Prop44ColorIndex
 90
        5
102
RTVSPost2010Prop44ColorRGB
 90
      255
102
RTVSPost2010PropOp44
 70
     1
102
RTVSPost2010Prop45
280
     0
102
RTVSPost2010PropOp45
 70
     1
102
RTVSPost2010Prop46
 90
       50
102
RTVSPost2010PropOp46
 70
     1
102
RTVSPost2010Prop47
 90
       50
102
RTVSPost2010PropOp47
 70
     1
102
RTVSPost2010Prop48
 90
       50
102
RTVSPost2010PropOp48
 70
     1
102
RTVSPost2010Prop49
280
     0
102
RTVSPost2010PropOp49
 70
     1
102
RTVSPost2010Prop50
 90
       50
102
RTVSPost2010PropOp50
 70
     1
102
RTVSPost2010Prop51ColorIndex
 90
      256
102
RTVSPost2010Prop51ColorRGB
 90
-16777216
102
RTVSPost2010PropOp51
 70
     0
102
RTVSPost2010Prop52
140
1.0
102
RTVSPost2010PropOp52
 70
     0
102
RTVSPost2010Prop53
 90
        2
102
RTVSPost2010PropOp53
 70
     1
102
RTVSPost2010Prop54
  1
strokes_ogs.tif
102
RTVSPost2010PropOp54
 70
     1
102
RTVSPost2010Prop55
280
     0
102
RTVSPost2010PropOp55
 70
     1
102
RTVSPost2010Prop56
140
1.0
102
RTVSPost2010PropOp56
 70
     1
102
RTVSPost2010Prop57
140
1.0
102
RTVSPost2010PropOp57
 70
     1
  0
XRECORD
  5
15DD
102
{ACAD_REACTORS
330
15DC
102
}
330
15DC
100
AcDbXrecord
280
     1
102
RTVSPost2010Prop28
280
     0
102
RTVSPost2010PropOp28
 70
     1
102
RTVSPost2010Prop29
280
     1
102
RTVSPost2010PropOp29
 70
     1
102
RTVSPost2010Prop30
280
     1
102
RTVSPost2010PropOp30
 70
     1
102
RTVSPost2010Prop31
280
     0
102
RTVSPost2010PropOp31
 70
     1
102
RTVSPost2010Prop32
280
     0
102
RTVSPost2010PropOp32
 70
     1
102
RTVSPost2010Prop33
280
     0
102
RTVSPost2010PropOp33
 70
     1
102
RTVSPost2010Prop34
280
     0
102
RTVSPost2010PropOp34
 70
     1
102
RTVSPost2010Prop35
280
     0
102
RTVSPost2010PropOp35
 70
     1
102
RTVSPost2010Prop36
280
     0
102
RTVSPost2010PropOp36
 70
     1
102
RTVSPost2010Prop37
 90
       50
102
RTVSPost2010PropOp37
 70
     1
102
RTVSPost2010Prop38
140
0.0
102
RTVSPost2010PropOp38
 70
     1
102
RTVSPost2010Prop39
140
1.0
102
RTVSPost2010PropOp39
 70
     1
102
RTVSPost2010Prop40
 90
        0
102
RTVSPost2010PropOp40
 70
     1
102
RTVSPost2010Prop41ColorIndex
 90
       18
102
RTVSPost2010Prop41ColorRGB
 90
        0
102
RTVSPost2010PropOp41
 70
     1
102
RTVSPost2010Prop42
 90
       50
102
RTVSPost2010PropOp42
 70
     1
102
RTVSPost2010Prop43
 90
        3
102
RTVSPost2010PropOp43
 70
     1
102
RTVSPost2010Prop44ColorIndex
 90
        5
102
RTVSPost2010Prop44ColorRGB
 90
      255
102
RTVSPost2010PropOp44
 70
     1
102
RTVSPost2010Prop45
280
     0
102
RTVSPost2010PropOp45
 70
     1
102
RTVSPost2010Prop46
 90
       50
102
RTVSPost2010PropOp46
 70
     1
102
RTVSPost2010Prop47
 90
       50
102
RTVSPost2010PropOp47
 70
     1
102
RTVSPost2010Prop48
 90
       50
102
RTVSPost2010PropOp48
 70
     1
102
RTVSPost2010Prop49
280
     0
102
RTVSPost2010PropOp49
 70
     1
102
RTVSPost2010Prop50
 90
       50
102
RTVSPost2010PropOp50
 70
     1
102
RTVSPost2010Prop51ColorIndex
 90
      256
102
RTVSPost2010Prop51ColorRGB
 90
-16777216
102
RTVSPost2010PropOp51
 70
     0
102
RTVSPost2010Prop52
140
1.0
102
RTVSPost2010PropOp52
 70
     0
102
RTVSPost2010Prop53
 90
        2
102
RTVSPost2010PropOp53
 70
     1
102
RTVSPost2010Prop54
  1
strokes_ogs.tif
102
RTVSPost2010PropOp54
 70
     1
102
RTVSPost2010Prop55
280
     0
102
RTVSPost2010PropOp55
 70
     1
102
RTVSPost2010Prop56
140
1.0
102
RTVSPost2010PropOp56
 70
     1
102
RTVSPost2010Prop57
140
1.0
102
RTVSPost2010PropOp57
 70
     1
  0
XRECORD
  5
15E1
102
{ACAD_REACTORS
330
15E0
102
}
330
15E0
100
AcDbXrecord
280
     1
102
RTVSPost2010Prop28
280
     0
102
RTVSPost2010PropOp28
 70
     1
102
RTVSPost2010Prop29
280
     1
102
RTVSPost2010PropOp29
 70
     1
102
RTVSPost2010Prop30
280
     1
102
RTVSPost2010PropOp30
 70
     1
102
RTVSPost2010Prop31
280
     0
102
RTVSPost2010PropOp31
 70
     1
102
RTVSPost2010Prop32
280
     0
102
RTVSPost2010PropOp32
 70
     1
102
RTVSPost2010Prop33
280
     0
102
RTVSPost2010PropOp33
 70
     1
102
RTVSPost2010Prop34
280
     0
102
RTVSPost2010PropOp34
 70
     1
102
RTVSPost2010Prop35
280
     0
102
RTVSPost2010PropOp35
 70
     1
102
RTVSPost2010Prop36
280
     0
102
RTVSPost2010PropOp36
 70
     1
102
RTVSPost2010Prop37
 90
       50
102
RTVSPost2010PropOp37
 70
     1
102
RTVSPost2010Prop38
140
0.0
102
RTVSPost2010PropOp38
 70
     1
102
RTVSPost2010Prop39
140
1.0
102
RTVSPost2010PropOp39
 70
     1
102
RTVSPost2010Prop40
 90
        0
102
RTVSPost2010PropOp40
 70
     1
102
RTVSPost2010Prop41ColorIndex
 90
       18
102
RTVSPost2010Prop41ColorRGB
 90
        0
102
RTVSPost2010PropOp41
 70
     1
102
RTVSPost2010Prop42
 90
       50
102
RTVSPost2010PropOp42
 70
     1
102
RTVSPost2010Prop43
 90
        3
102
RTVSPost2010PropOp43
 70
     1
102
RTVSPost2010Prop44ColorIndex
 90
        5
102
RTVSPost2010Prop44ColorRGB
 90
      255
102
RTVSPost2010PropOp44
 70
     1
102
RTVSPost2010Prop45
280
     0
102
RTVSPost2010PropOp45
 70
     1
102
RTVSPost2010Prop46
 90
       50
102
RTVSPost2010PropOp46
 70
     1
102
RTVSPost2010Prop47
 90
       50
102
RTVSPost2010PropOp47
 70
     1
102
RTVSPost2010Prop48
 90
       50
102
RTVSPost2010PropOp48
 70
     1
102
RTVSPost2010Prop49
280
     0
102
RTVSPost2010PropOp49
 70
     1
102
RTVSPost2010Prop50
 90
       50
102
RTVSPost2010PropOp50
 70
     1
102
RTVSPost2010Prop51ColorIndex
 90
      256
102
RTVSPost2010Prop51ColorRGB
 90
-16777216
102
RTVSPost2010PropOp51
 70
     0
102
RTVSPost2010Prop52
140
1.0
102
RTVSPost2010PropOp52
 70
     0
102
RTVSPost2010Prop53
 90
        2
102
RTVSPost2010PropOp53
 70
     1
102
RTVSPost2010Prop54
  1
strokes_ogs.tif
102
RTVSPost2010PropOp54
 70
     1
102
RTVSPost2010Prop55
280
     0
102
RTVSPost2010PropOp55
 70
     1
102
RTVSPost2010Prop56
140
1.0
102
RTVSPost2010PropOp56
 70
     1
102
RTVSPost2010Prop57
140
1.0
102
RTVSPost2010PropOp57
 70
     1
  0
XRECORD
  5
15F1
102
{ACAD_REACTORS
330
15F0
102
}
330
15F0
100
AcDbXrecord
280
     1
102
RTVSPost2010Prop28
280
     0
102
RTVSPost2010PropOp28
 70
     1
102
RTVSPost2010Prop29
280
     1
102
RTVSPost2010PropOp29
 70
     1
102
RTVSPost2010Prop30
280
     1
102
RTVSPost2010PropOp30
 70
     1
102
RTVSPost2010Prop31
280
     0
102
RTVSPost2010PropOp31
 70
     1
102
RTVSPost2010Prop32
280
     0
102
RTVSPost2010PropOp32
 70
     1
102
RTVSPost2010Prop33
280
     0
102
RTVSPost2010PropOp33
 70
     1
102
RTVSPost2010Prop34
280
     0
102
RTVSPost2010PropOp34
 70
     1
102
RTVSPost2010Prop35
280
     0
102
RTVSPost2010PropOp35
 70
     1
102
RTVSPost2010Prop36
280
     0
102
RTVSPost2010PropOp36
 70
     1
102
RTVSPost2010Prop37
 90
       50
102
RTVSPost2010PropOp37
 70
     1
102
RTVSPost2010Prop38
140
0.0
102
RTVSPost2010PropOp38
 70
     1
102
RTVSPost2010Prop39
140
1.0
102
RTVSPost2010PropOp39
 70
     1
102
RTVSPost2010Prop40
 90
        0
102
RTVSPost2010PropOp40
 70
     1
102
RTVSPost2010Prop41ColorIndex
 90
       18
102
RTVSPost2010Prop41ColorRGB
 90
        0
102
RTVSPost2010PropOp41
 70
     1
102
RTVSPost2010Prop42
 90
       50
102
RTVSPost2010PropOp42
 70
     1
102
RTVSPost2010Prop43
 90
        3
102
RTVSPost2010PropOp43
 70
     1
102
RTVSPost2010Prop44ColorIndex
 90
        5
102
RTVSPost2010Prop44ColorRGB
 90
      255
102
RTVSPost2010PropOp44
 70
     1
102
RTVSPost2010Prop45
280
     0
102
RTVSPost2010PropOp45
 70
     1
102
RTVSPost2010Prop46
 90
       50
102
RTVSPost2010PropOp46
 70
     1
102
RTVSPost2010Prop47
 90
       50
102
RTVSPost2010PropOp47
 70
     1
102
RTVSPost2010Prop48
 90
       50
102
RTVSPost2010PropOp48
 70
     1
102
RTVSPost2010Prop49
280
     0
102
RTVSPost2010PropOp49
 70
     1
102
RTVSPost2010Prop50
 90
       50
102
RTVSPost2010PropOp50
 70
     1
102
RTVSPost2010Prop51ColorIndex
 90
      256
102
RTVSPost2010Prop51ColorRGB
 90
-16777216
102
RTVSPost2010PropOp51
 70
     0
102
RTVSPost2010Prop52
140
1.0
102
RTVSPost2010PropOp52
 70
     0
102
RTVSPost2010Prop53
 90
        2
102
RTVSPost2010PropOp53
 70
     1
102
RTVSPost2010Prop54
  1
strokes_ogs.tif
102
RTVSPost2010PropOp54
 70
     1
102
RTVSPost2010Prop55
280
     0
102
RTVSPost2010PropOp55
 70
     1
102
RTVSPost2010Prop56
140
1.0
102
RTVSPost2010PropOp56
 70
     1
102
RTVSPost2010Prop57
140
1.0
102
RTVSPost2010PropOp57
 70
     1
  0
XRECORD
  5
15E9
102
{ACAD_REACTORS
330
15E8
102
}
330
15E8
100
AcDbXrecord
280
     1
102
RTVSPost2010Prop28
280
     0
102
RTVSPost2010PropOp28
 70
     1
102
RTVSPost2010Prop29
280
     1
102
RTVSPost2010PropOp29
 70
     1
102
RTVSPost2010Prop30
280
     1
102
RTVSPost2010PropOp30
 70
     1
102
RTVSPost2010Prop31
280
     0
102
RTVSPost2010PropOp31
 70
     1
102
RTVSPost2010Prop32
280
     0
102
RTVSPost2010PropOp32
 70
     1
102
RTVSPost2010Prop33
280
     0
102
RTVSPost2010PropOp33
 70
     1
102
RTVSPost2010Prop34
280
     0
102
RTVSPost2010PropOp34
 70
     1
102
RTVSPost2010Prop35
280
     0
102
RTVSPost2010PropOp35
 70
     1
102
RTVSPost2010Prop36
280
     0
102
RTVSPost2010PropOp36
 70
     1
102
RTVSPost2010Prop37
 90
       50
102
RTVSPost2010PropOp37
 70
     1
102
RTVSPost2010Prop38
140
0.0
102
RTVSPost2010PropOp38
 70
     1
102
RTVSPost2010Prop39
140
1.0
102
RTVSPost2010PropOp39
 70
     1
102
RTVSPost2010Prop40
 90
        0
102
RTVSPost2010PropOp40
 70
     1
102
RTVSPost2010Prop41ColorIndex
 90
       18
102
RTVSPost2010Prop41ColorRGB
 90
        0
102
RTVSPost2010PropOp41
 70
     1
102
RTVSPost2010Prop42
 90
       50
102
RTVSPost2010PropOp42
 70
     1
102
RTVSPost2010Prop43
 90
        3
102
RTVSPost2010PropOp43
 70
     1
102
RTVSPost2010Prop44ColorIndex
 90
        5
102
RTVSPost2010Prop44ColorRGB
 90
      255
102
RTVSPost2010PropOp44
 70
     1
102
RTVSPost2010Prop45
280
     0
102
RTVSPost2010PropOp45
 70
     1
102
RTVSPost2010Prop46
 90
       50
102
RTVSPost2010PropOp46
 70
     1
102
RTVSPost2010Prop47
 90
       50
102
RTVSPost2010PropOp47
 70
     1
102
RTVSPost2010Prop48
 90
       50
102
RTVSPost2010PropOp48
 70
     1
102
RTVSPost2010Prop49
280
     0
102
RTVSPost2010PropOp49
 70
     1
102
RTVSPost2010Prop50
 90
       50
102
RTVSPost2010PropOp50
 70
     1
102
RTVSPost2010Prop51ColorIndex
 90
      256
102
RTVSPost2010Prop51ColorRGB
 90
-16777216
102
RTVSPost2010PropOp51
 70
     0
102
RTVSPost2010Prop52
140
1.0
102
RTVSPost2010PropOp52
 70
     0
102
RTVSPost2010Prop53
 90
        2
102
RTVSPost2010PropOp53
 70
     1
102
RTVSPost2010Prop54
  1
strokes_ogs.tif
102
RTVSPost2010PropOp54
 70
     1
102
RTVSPost2010Prop55
280
     0
102
RTVSPost2010PropOp55
 70
     1
102
RTVSPost2010Prop56
140
1.0
102
RTVSPost2010PropOp56
 70
     1
102
RTVSPost2010Prop57
140
1.0
102
RTVSPost2010PropOp57
 70
     1
  0
XRECORD
  5
15CD
102
{ACAD_REACTORS
330
15CC
102
}
330
15CC
100
AcDbXrecord
280
     1
102
RTVSPost2010Prop28
280
     0
102
RTVSPost2010PropOp28
 70
     1
102
RTVSPost2010Prop29
280
     1
102
RTVSPost2010PropOp29
 70
     1
102
RTVSPost2010Prop30
280
     1
102
RTVSPost2010PropOp30
 70
     1
102
RTVSPost2010Prop31
280
     0
102
RTVSPost2010PropOp31
 70
     1
102
RTVSPost2010Prop32
280
     0
102
RTVSPost2010PropOp32
 70
     1
102
RTVSPost2010Prop33
280
     0
102
RTVSPost2010PropOp33
 70
     1
102
RTVSPost2010Prop34
280
     0
102
RTVSPost2010PropOp34
 70
     1
102
RTVSPost2010Prop35
280
     0
102
RTVSPost2010PropOp35
 70
     1
102
RTVSPost2010Prop36
280
     0
102
RTVSPost2010PropOp36
 70
     1
102
RTVSPost2010Prop37
 90
       50
102
RTVSPost2010PropOp37
 70
     1
102
RTVSPost2010Prop38
140
0.0
102
RTVSPost2010PropOp38
 70
     1
102
RTVSPost2010Prop39
140
1.0
102
RTVSPost2010PropOp39
 70
     1
102
RTVSPost2010Prop40
 90
        0
102
RTVSPost2010PropOp40
 70
     1
102
RTVSPost2010Prop41ColorIndex
 90
       18
102
RTVSPost2010Prop41ColorRGB
 90
        0
102
RTVSPost2010PropOp41
 70
     1
102
RTVSPost2010Prop42
 90
       50
102
RTVSPost2010PropOp42
 70
     1
102
RTVSPost2010Prop43
 90
        3
102
RTVSPost2010PropOp43
 70
     1
102
RTVSPost2010Prop44ColorIndex
 90
        5
102
RTVSPost2010Prop44ColorRGB
 90
      255
102
RTVSPost2010PropOp44
 70
     1
102
RTVSPost2010Prop45
280
     0
102
RTVSPost2010PropOp45
 70
     1
102
RTVSPost2010Prop46
 90
       50
102
RTVSPost2010PropOp46
 70
     1
102
RTVSPost2010Prop47
 90
       50
102
RTVSPost2010PropOp47
 70
     1
102
RTVSPost2010Prop48
 90
       50
102
RTVSPost2010PropOp48
 70
     1
102
RTVSPost2010Prop49
280
     0
102
RTVSPost2010PropOp49
 70
     1
102
RTVSPost2010Prop50
 90
       50
102
RTVSPost2010PropOp50
 70
     1
102
RTVSPost2010Prop51ColorIndex
 90
      256
102
RTVSPost2010Prop51ColorRGB
 90
-16777216
102
RTVSPost2010PropOp51
 70
     0
102
RTVSPost2010Prop52
140
1.0
102
RTVSPost2010PropOp52
 70
     0
102
RTVSPost2010Prop53
 90
        2
102
RTVSPost2010PropOp53
 70
     1
102
RTVSPost2010Prop54
  1
strokes_ogs.tif
102
RTVSPost2010PropOp54
 70
     1
102
RTVSPost2010Prop55
280
     0
102
RTVSPost2010PropOp55
 70
     1
102
RTVSPost2010Prop56
140
1.0
102
RTVSPost2010PropOp56
 70
     1
102
RTVSPost2010Prop57
140
1.0
102
RTVSPost2010PropOp57
 70
     1
  0
XRECORD
  5
15CF
102
{ACAD_REACTORS
330
15CE
102
}
330
15CE
100
AcDbXrecord
280
     1
102
RTVSPost2010Prop28
280
     0
102
RTVSPost2010PropOp28
 70
     1
102
RTVSPost2010Prop29
280
     1
102
RTVSPost2010PropOp29
 70
     1
102
RTVSPost2010Prop30
280
     1
102
RTVSPost2010PropOp30
 70
     1
102
RTVSPost2010Prop31
280
     0
102
RTVSPost2010PropOp31
 70
     1
102
RTVSPost2010Prop32
280
     0
102
RTVSPost2010PropOp32
 70
     1
102
RTVSPost2010Prop33
280
     0
102
RTVSPost2010PropOp33
 70
     1
102
RTVSPost2010Prop34
280
     0
102
RTVSPost2010PropOp34
 70
     1
102
RTVSPost2010Prop35
280
     0
102
RTVSPost2010PropOp35
 70
     1
102
RTVSPost2010Prop36
280
     0
102
RTVSPost2010PropOp36
 70
     1
102
RTVSPost2010Prop37
 90
       50
102
RTVSPost2010PropOp37
 70
     1
102
RTVSPost2010Prop38
140
0.0
102
RTVSPost2010PropOp38
 70
     1
102
RTVSPost2010Prop39
140
1.0
102
RTVSPost2010PropOp39
 70
     1
102
RTVSPost2010Prop40
 90
        0
102
RTVSPost2010PropOp40
 70
     1
102
RTVSPost2010Prop41ColorIndex
 90
       18
102
RTVSPost2010Prop41ColorRGB
 90
        0
102
RTVSPost2010PropOp41
 70
     1
102
RTVSPost2010Prop42
 90
       50
102
RTVSPost2010PropOp42
 70
     1
102
RTVSPost2010Prop43
 90
        3
102
RTVSPost2010PropOp43
 70
     1
102
RTVSPost2010Prop44ColorIndex
 90
        5
102
RTVSPost2010Prop44ColorRGB
 90
      255
102
RTVSPost2010PropOp44
 70
     1
102
RTVSPost2010Prop45
280
     0
102
RTVSPost2010PropOp45
 70
     1
102
RTVSPost2010Prop46
 90
       50
102
RTVSPost2010PropOp46
 70
     1
102
RTVSPost2010Prop47
 90
       50
102
RTVSPost2010PropOp47
 70
     1
102
RTVSPost2010Prop48
 90
       50
102
RTVSPost2010PropOp48
 70
     1
102
RTVSPost2010Prop49
280
     0
102
RTVSPost2010PropOp49
 70
     1
102
RTVSPost2010Prop50
 90
       50
102
RTVSPost2010PropOp50
 70
     1
102
RTVSPost2010Prop51ColorIndex
 90
      256
102
RTVSPost2010Prop51ColorRGB
 90
-16777216
102
RTVSPost2010PropOp51
 70
     0
102
RTVSPost2010Prop52
140
1.0
102
RTVSPost2010PropOp52
 70
     0
102
RTVSPost2010Prop53
 90
        2
102
RTVSPost2010PropOp53
 70
     1
102
RTVSPost2010Prop54
  1
strokes_ogs.tif
102
RTVSPost2010PropOp54
 70
     1
102
RTVSPost2010Prop55
280
     0
102
RTVSPost2010PropOp55
 70
     1
102
RTVSPost2010Prop56
140
1.0
102
RTVSPost2010PropOp56
 70
     1
102
RTVSPost2010Prop57
140
1.0
102
RTVSPost2010PropOp57
 70
     1
  0
XRECORD
  5
15D1
102
{ACAD_REACTORS
330
15D0
102
}
330
15D0
100
AcDbXrecord
280
     1
102
RTVSPost2010Prop28
280
     0
102
RTVSPost2010PropOp28
 70
     1
102
RTVSPost2010Prop29
280
     1
102
RTVSPost2010PropOp29
 70
     1
102
RTVSPost2010Prop30
280
     1
102
RTVSPost2010PropOp30
 70
     1
102
RTVSPost2010Prop31
280
     0
102
RTVSPost2010PropOp31
 70
     1
102
RTVSPost2010Prop32
280
     0
102
RTVSPost2010PropOp32
 70
     1
102
RTVSPost2010Prop33
280
     0
102
RTVSPost2010PropOp33
 70
     1
102
RTVSPost2010Prop34
280
     0
102
RTVSPost2010PropOp34
 70
     1
102
RTVSPost2010Prop35
280
     0
102
RTVSPost2010PropOp35
 70
     1
102
RTVSPost2010Prop36
280
     0
102
RTVSPost2010PropOp36
 70
     1
102
RTVSPost2010Prop37
 90
       50
102
RTVSPost2010PropOp37
 70
     1
102
RTVSPost2010Prop38
140
0.0
102
RTVSPost2010PropOp38
 70
     1
102
RTVSPost2010Prop39
140
1.0
102
RTVSPost2010PropOp39
 70
     1
102
RTVSPost2010Prop40
 90
        0
102
RTVSPost2010PropOp40
 70
     1
102
RTVSPost2010Prop41ColorIndex
 90
       18
102
RTVSPost2010Prop41ColorRGB
 90
        0
102
RTVSPost2010PropOp41
 70
     1
102
RTVSPost2010Prop42
 90
       50
102
RTVSPost2010PropOp42
 70
     1
102
RTVSPost2010Prop43
 90
        3
102
RTVSPost2010PropOp43
 70
     1
102
RTVSPost2010Prop44ColorIndex
 90
        5
102
RTVSPost2010Prop44ColorRGB
 90
      255
102
RTVSPost2010PropOp44
 70
     1
102
RTVSPost2010Prop45
280
     0
102
RTVSPost2010PropOp45
 70
     1
102
RTVSPost2010Prop46
 90
       50
102
RTVSPost2010PropOp46
 70
     1
102
RTVSPost2010Prop47
 90
       50
102
RTVSPost2010PropOp47
 70
     1
102
RTVSPost2010Prop48
 90
       50
102
RTVSPost2010PropOp48
 70
     1
102
RTVSPost2010Prop49
280
     0
102
RTVSPost2010PropOp49
 70
     1
102
RTVSPost2010Prop50
 90
       50
102
RTVSPost2010PropOp50
 70
     1
102
RTVSPost2010Prop51ColorIndex
 90
      256
102
RTVSPost2010Prop51ColorRGB
 90
-16777216
102
RTVSPost2010PropOp51
 70
     0
102
RTVSPost2010Prop52
140
1.0
102
RTVSPost2010PropOp52
 70
     0
102
RTVSPost2010Prop53
 90
        2
102
RTVSPost2010PropOp53
 70
     1
102
RTVSPost2010Prop54
  1
strokes_ogs.tif
102
RTVSPost2010PropOp54
 70
     1
102
RTVSPost2010Prop55
280
     0
102
RTVSPost2010PropOp55
 70
     1
102
RTVSPost2010Prop56
140
1.0
102
RTVSPost2010PropOp56
 70
     1
102
RTVSPost2010Prop57
140
1.0
102
RTVSPost2010PropOp57
 70
     1
  0
XRECORD
  5
15D3
102
{ACAD_REACTORS
330
15D2
102
}
330
15D2
100
AcDbXrecord
280
     1
102
RTVSPost2010Prop28
280
     0
102
RTVSPost2010PropOp28
 70
     1
102
RTVSPost2010Prop29
280
     1
102
RTVSPost2010PropOp29
 70
     1
102
RTVSPost2010Prop30
280
     1
102
RTVSPost2010PropOp30
 70
     1
102
RTVSPost2010Prop31
280
     0
102
RTVSPost2010PropOp31
 70
     1
102
RTVSPost2010Prop32
280
     0
102
RTVSPost2010PropOp32
 70
     1
102
RTVSPost2010Prop33
280
     0
102
RTVSPost2010PropOp33
 70
     1
102
RTVSPost2010Prop34
280
     0
102
RTVSPost2010PropOp34
 70
     1
102
RTVSPost2010Prop35
280
     0
102
RTVSPost2010PropOp35
 70
     1
102
RTVSPost2010Prop36
280
     0
102
RTVSPost2010PropOp36
 70
     1
102
RTVSPost2010Prop37
 90
       50
102
RTVSPost2010PropOp37
 70
     1
102
RTVSPost2010Prop38
140
0.0
102
RTVSPost2010PropOp38
 70
     1
102
RTVSPost2010Prop39
140
1.0
102
RTVSPost2010PropOp39
 70
     1
102
RTVSPost2010Prop40
 90
        0
102
RTVSPost2010PropOp40
 70
     1
102
RTVSPost2010Prop41ColorIndex
 90
       18
102
RTVSPost2010Prop41ColorRGB
 90
        0
102
RTVSPost2010PropOp41
 70
     1
102
RTVSPost2010Prop42
 90
       50
102
RTVSPost2010PropOp42
 70
     1
102
RTVSPost2010Prop43
 90
        3
102
RTVSPost2010PropOp43
 70
     1
102
RTVSPost2010Prop44ColorIndex
 90
        5
102
RTVSPost2010Prop44ColorRGB
 90
      255
102
RTVSPost2010PropOp44
 70
     1
102
RTVSPost2010Prop45
280
     0
102
RTVSPost2010PropOp45
 70
     1
102
RTVSPost2010Prop46
 90
       50
102
RTVSPost2010PropOp46
 70
     1
102
RTVSPost2010Prop47
 90
       50
102
RTVSPost2010PropOp47
 70
     1
102
RTVSPost2010Prop48
 90
       50
102
RTVSPost2010PropOp48
 70
     1
102
RTVSPost2010Prop49
280
     0
102
RTVSPost2010PropOp49
 70
     1
102
RTVSPost2010Prop50
 90
       50
102
RTVSPost2010PropOp50
 70
     1
102
RTVSPost2010Prop51ColorIndex
 90
      256
102
RTVSPost2010Prop51ColorRGB
 90
-16777216
102
RTVSPost2010PropOp51
 70
     0
102
RTVSPost2010Prop52
140
1.0
102
RTVSPost2010PropOp52
 70
     0
102
RTVSPost2010Prop53
 90
        2
102
RTVSPost2010PropOp53
 70
     1
102
RTVSPost2010Prop54
  1
strokes_ogs.tif
102
RTVSPost2010PropOp54
 70
     1
102
RTVSPost2010Prop55
280
     0
102
RTVSPost2010PropOp55
 70
     1
102
RTVSPost2010Prop56
140
1.0
102
RTVSPost2010PropOp56
 70
     1
102
RTVSPost2010Prop57
140
1.0
102
RTVSPost2010PropOp57
 70
     1
  0
XRECORD
  5
15DB
102
{ACAD_REACTORS
330
15DA
102
}
330
15DA
100
AcDbXrecord
280
     1
102
RTVSPost2010Prop28
280
     0
102
RTVSPost2010PropOp28
 70
     1
102
RTVSPost2010Prop29
280
     1
102
RTVSPost2010PropOp29
 70
     1
102
RTVSPost2010Prop30
280
     1
102
RTVSPost2010PropOp30
 70
     1
102
RTVSPost2010Prop31
280
     0
102
RTVSPost2010PropOp31
 70
     1
102
RTVSPost2010Prop32
280
     0
102
RTVSPost2010PropOp32
 70
     1
102
RTVSPost2010Prop33
280
     0
102
RTVSPost2010PropOp33
 70
     1
102
RTVSPost2010Prop34
280
     0
102
RTVSPost2010PropOp34
 70
     1
102
RTVSPost2010Prop35
280
     0
102
RTVSPost2010PropOp35
 70
     1
102
RTVSPost2010Prop36
280
     0
102
RTVSPost2010PropOp36
 70
     1
102
RTVSPost2010Prop37
 90
       50
102
RTVSPost2010PropOp37
 70
     1
102
RTVSPost2010Prop38
140
0.0
102
RTVSPost2010PropOp38
 70
     1
102
RTVSPost2010Prop39
140
1.0
102
RTVSPost2010PropOp39
 70
     1
102
RTVSPost2010Prop40
 90
        0
102
RTVSPost2010PropOp40
 70
     1
102
RTVSPost2010Prop41ColorIndex
 90
       18
102
RTVSPost2010Prop41ColorRGB
 90
        0
102
RTVSPost2010PropOp41
 70
     1
102
RTVSPost2010Prop42
 90
       50
102
RTVSPost2010PropOp42
 70
     1
102
RTVSPost2010Prop43
 90
        3
102
RTVSPost2010PropOp43
 70
     1
102
RTVSPost2010Prop44ColorIndex
 90
        5
102
RTVSPost2010Prop44ColorRGB
 90
      255
102
RTVSPost2010PropOp44
 70
     1
102
RTVSPost2010Prop45
280
     0
102
RTVSPost2010PropOp45
 70
     1
102
RTVSPost2010Prop46
 90
       50
102
RTVSPost2010PropOp46
 70
     1
102
RTVSPost2010Prop47
 90
       50
102
RTVSPost2010PropOp47
 70
     1
102
RTVSPost2010Prop48
 90
       50
102
RTVSPost2010PropOp48
 70
     1
102
RTVSPost2010Prop49
280
     0
102
RTVSPost2010PropOp49
 70
     1
102
RTVSPost2010Prop50
 90
       50
102
RTVSPost2010PropOp50
 70
     1
102
RTVSPost2010Prop51ColorIndex
 90
      256
102
RTVSPost2010Prop51ColorRGB
 90
-16777216
102
RTVSPost2010PropOp51
 70
     0
102
RTVSPost2010Prop52
140
1.0
102
RTVSPost2010PropOp52
 70
     0
102
RTVSPost2010Prop53
 90
        2
102
RTVSPost2010PropOp53
 70
     1
102
RTVSPost2010Prop54
  1
strokes_ogs.tif
102
RTVSPost2010PropOp54
 70
     1
102
RTVSPost2010Prop55
280
     0
102
RTVSPost2010PropOp55
 70
     1
102
RTVSPost2010Prop56
140
1.0
102
RTVSPost2010PropOp56
 70
     1
102
RTVSPost2010Prop57
140
1.0
102
RTVSPost2010PropOp57
 70
     1
  0
XRECORD
  5
15ED
102
{ACAD_REACTORS
330
15EC
102
}
330
15EC
100
AcDbXrecord
280
     1
102
RTVSPost2010Prop28
280
     0
102
RTVSPost2010PropOp28
 70
     1
102
RTVSPost2010Prop29
280
     1
102
RTVSPost2010PropOp29
 70
     1
102
RTVSPost2010Prop30
280
     1
102
RTVSPost2010PropOp30
 70
     1
102
RTVSPost2010Prop31
280
     0
102
RTVSPost2010PropOp31
 70
     1
102
RTVSPost2010Prop32
280
     0
102
RTVSPost2010PropOp32
 70
     1
102
RTVSPost2010Prop33
280
     0
102
RTVSPost2010PropOp33
 70
     1
102
RTVSPost2010Prop34
280
     0
102
RTVSPost2010PropOp34
 70
     1
102
RTVSPost2010Prop35
280
     0
102
RTVSPost2010PropOp35
 70
     1
102
RTVSPost2010Prop36
280
     0
102
RTVSPost2010PropOp36
 70
     1
102
RTVSPost2010Prop37
 90
       50
102
RTVSPost2010PropOp37
 70
     1
102
RTVSPost2010Prop38
140
0.0
102
RTVSPost2010PropOp38
 70
     1
102
RTVSPost2010Prop39
140
1.0
102
RTVSPost2010PropOp39
 70
     1
102
RTVSPost2010Prop40
 90
        0
102
RTVSPost2010PropOp40
 70
     1
102
RTVSPost2010Prop41ColorIndex
 90
       18
102
RTVSPost2010Prop41ColorRGB
 90
        0
102
RTVSPost2010PropOp41
 70
     1
102
RTVSPost2010Prop42
 90
       50
102
RTVSPost2010PropOp42
 70
     1
102
RTVSPost2010Prop43
 90
        3
102
RTVSPost2010PropOp43
 70
     1
102
RTVSPost2010Prop44ColorIndex
 90
        5
102
RTVSPost2010Prop44ColorRGB
 90
      255
102
RTVSPost2010PropOp44
 70
     1
102
RTVSPost2010Prop45
280
     0
102
RTVSPost2010PropOp45
 70
     1
102
RTVSPost2010Prop46
 90
       50
102
RTVSPost2010PropOp46
 70
     1
102
RTVSPost2010Prop47
 90
       50
102
RTVSPost2010PropOp47
 70
     1
102
RTVSPost2010Prop48
 90
       50
102
RTVSPost2010PropOp48
 70
     1
102
RTVSPost2010Prop49
280
     0
102
RTVSPost2010PropOp49
 70
     1
102
RTVSPost2010Prop50
 90
       50
102
RTVSPost2010PropOp50
 70
     1
102
RTVSPost2010Prop51ColorIndex
 90
      256
102
RTVSPost2010Prop51ColorRGB
 90
-16777216
102
RTVSPost2010PropOp51
 70
     0
102
RTVSPost2010Prop52
140
1.0
102
RTVSPost2010PropOp52
 70
     0
102
RTVSPost2010Prop53
 90
        2
102
RTVSPost2010PropOp53
 70
     1
102
RTVSPost2010Prop54
  1
strokes_ogs.tif
102
RTVSPost2010PropOp54
 70
     1
102
RTVSPost2010Prop55
280
     0
102
RTVSPost2010PropOp55
 70
     1
102
RTVSPost2010Prop56
140
1.0
102
RTVSPost2010PropOp56
 70
     1
102
RTVSPost2010Prop57
140
1.0
102
RTVSPost2010PropOp57
 70
     1
  0
XRECORD
  5
15E7
102
{ACAD_REACTORS
330
15E6
102
}
330
15E6
100
AcDbXrecord
280
     1
102
RTVSPost2010Prop28
280
     0
102
RTVSPost2010PropOp28
 70
     1
102
RTVSPost2010Prop29
280
     1
102
RTVSPost2010PropOp29
 70
     1
102
RTVSPost2010Prop30
280
     1
102
RTVSPost2010PropOp30
 70
     1
102
RTVSPost2010Prop31
280
     0
102
RTVSPost2010PropOp31
 70
     1
102
RTVSPost2010Prop32
280
     0
102
RTVSPost2010PropOp32
 70
     1
102
RTVSPost2010Prop33
280
     0
102
RTVSPost2010PropOp33
 70
     1
102
RTVSPost2010Prop34
280
     0
102
RTVSPost2010PropOp34
 70
     1
102
RTVSPost2010Prop35
280
     0
102
RTVSPost2010PropOp35
 70
     1
102
RTVSPost2010Prop36
280
     0
102
RTVSPost2010PropOp36
 70
     1
102
RTVSPost2010Prop37
 90
       50
102
RTVSPost2010PropOp37
 70
     1
102
RTVSPost2010Prop38
140
0.0
102
RTVSPost2010PropOp38
 70
     1
102
RTVSPost2010Prop39
140
1.0
102
RTVSPost2010PropOp39
 70
     1
102
RTVSPost2010Prop40
 90
        0
102
RTVSPost2010PropOp40
 70
     1
102
RTVSPost2010Prop41ColorIndex
 90
       18
102
RTVSPost2010Prop41ColorRGB
 90
        0
102
RTVSPost2010PropOp41
 70
     1
102
RTVSPost2010Prop42
 90
       50
102
RTVSPost2010PropOp42
 70
     1
102
RTVSPost2010Prop43
 90
        3
102
RTVSPost2010PropOp43
 70
     1
102
RTVSPost2010Prop44ColorIndex
 90
        5
102
RTVSPost2010Prop44ColorRGB
 90
      255
102
RTVSPost2010PropOp44
 70
     1
102
RTVSPost2010Prop45
280
     0
102
RTVSPost2010PropOp45
 70
     1
102
RTVSPost2010Prop46
 90
       50
102
RTVSPost2010PropOp46
 70
     1
102
RTVSPost2010Prop47
 90
       50
102
RTVSPost2010PropOp47
 70
     1
102
RTVSPost2010Prop48
 90
       50
102
RTVSPost2010PropOp48
 70
     1
102
RTVSPost2010Prop49
280
     0
102
RTVSPost2010PropOp49
 70
     1
102
RTVSPost2010Prop50
 90
       50
102
RTVSPost2010PropOp50
 70
     1
102
RTVSPost2010Prop51ColorIndex
 90
      256
102
RTVSPost2010Prop51ColorRGB
 90
-16777216
102
RTVSPost2010PropOp51
 70
     0
102
RTVSPost2010Prop52
140
1.0
102
RTVSPost2010PropOp52
 70
     0
102
RTVSPost2010Prop53
 90
        2
102
RTVSPost2010PropOp53
 70
     1
102
RTVSPost2010Prop54
  1
strokes_ogs.tif
102
RTVSPost2010PropOp54
 70
     1
102
RTVSPost2010Prop55
280
     0
102
RTVSPost2010PropOp55
 70
     1
102
RTVSPost2010Prop56
140
1.0
102
RTVSPost2010PropOp56
 70
     1
102
RTVSPost2010Prop57
140
1.0
102
RTVSPost2010PropOp57
 70
     1
  0
XRECORD
  5
15EF
102
{ACAD_REACTORS
330
15EE
102
}
330
15EE
100
AcDbXrecord
280
     1
102
RTVSPost2010Prop28
280
     0
102
RTVSPost2010PropOp28
 70
     1
102
RTVSPost2010Prop29
280
     1
102
RTVSPost2010PropOp29
 70
     1
102
RTVSPost2010Prop30
280
     1
102
RTVSPost2010PropOp30
 70
     1
102
RTVSPost2010Prop31
280
     0
102
RTVSPost2010PropOp31
 70
     1
102
RTVSPost2010Prop32
280
     0
102
RTVSPost2010PropOp32
 70
     1
102
RTVSPost2010Prop33
280
     0
102
RTVSPost2010PropOp33
 70
     1
102
RTVSPost2010Prop34
280
     0
102
RTVSPost2010PropOp34
 70
     1
102
RTVSPost2010Prop35
280
     0
102
RTVSPost2010PropOp35
 70
     1
102
RTVSPost2010Prop36
280
     0
102
RTVSPost2010PropOp36
 70
     1
102
RTVSPost2010Prop37
 90
       50
102
RTVSPost2010PropOp37
 70
     1
102
RTVSPost2010Prop38
140
0.0
102
RTVSPost2010PropOp38
 70
     1
102
RTVSPost2010Prop39
140
1.0
102
RTVSPost2010PropOp39
 70
     1
102
RTVSPost2010Prop40
 90
        0
102
RTVSPost2010PropOp40
 70
     1
102
RTVSPost2010Prop41ColorIndex
 90
       18
102
RTVSPost2010Prop41ColorRGB
 90
        0
102
RTVSPost2010PropOp41
 70
     1
102
RTVSPost2010Prop42
 90
       50
102
RTVSPost2010PropOp42
 70
     1
102
RTVSPost2010Prop43
 90
        3
102
RTVSPost2010PropOp43
 70
     1
102
RTVSPost2010Prop44ColorIndex
 90
        5
102
RTVSPost2010Prop44ColorRGB
 90
      255
102
RTVSPost2010PropOp44
 70
     1
102
RTVSPost2010Prop45
280
     0
102
RTVSPost2010PropOp45
 70
     1
102
RTVSPost2010Prop46
 90
       50
102
RTVSPost2010PropOp46
 70
     1
102
RTVSPost2010Prop47
 90
       50
102
RTVSPost2010PropOp47
 70
     1
102
RTVSPost2010Prop48
 90
       50
102
RTVSPost2010PropOp48
 70
     1
102
RTVSPost2010Prop49
280
     0
102
RTVSPost2010PropOp49
 70
     1
102
RTVSPost2010Prop50
 90
       50
102
RTVSPost2010PropOp50
 70
     1
102
RTVSPost2010Prop51ColorIndex
 90
      256
102
RTVSPost2010Prop51ColorRGB
 90
-16777216
102
RTVSPost2010PropOp51
 70
     0
102
RTVSPost2010Prop52
140
1.0
102
RTVSPost2010PropOp52
 70
     0
102
RTVSPost2010Prop53
 90
        2
102
RTVSPost2010PropOp53
 70
     1
102
RTVSPost2010Prop54
  1
strokes_ogs.tif
102
RTVSPost2010PropOp54
 70
     1
102
RTVSPost2010Prop55
280
     0
102
RTVSPost2010PropOp55
 70
     1
102
RTVSPost2010Prop56
140
1.0
102
RTVSPost2010PropOp56
 70
     1
102
RTVSPost2010Prop57
140
1.0
102
RTVSPost2010PropOp57
 70
     1
  0
XRECORD
  5
15DF
102
{ACAD_REACTORS
330
15DE
102
}
330
15DE
100
AcDbXrecord
280
     1
102
RTVSPost2010Prop28
280
     0
102
RTVSPost2010PropOp28
 70
     1
102
RTVSPost2010Prop29
280
     1
102
RTVSPost2010PropOp29
 70
     1
102
RTVSPost2010Prop30
280
     1
102
RTVSPost2010PropOp30
 70
     1
102
RTVSPost2010Prop31
280
     0
102
RTVSPost2010PropOp31
 70
     1
102
RTVSPost2010Prop32
280
     0
102
RTVSPost2010PropOp32
 70
     1
102
RTVSPost2010Prop33
280
     0
102
RTVSPost2010PropOp33
 70
     1
102
RTVSPost2010Prop34
280
     0
102
RTVSPost2010PropOp34
 70
     1
102
RTVSPost2010Prop35
280
     0
102
RTVSPost2010PropOp35
 70
     1
102
RTVSPost2010Prop36
280
     0
102
RTVSPost2010PropOp36
 70
     1
102
RTVSPost2010Prop37
 90
       50
102
RTVSPost2010PropOp37
 70
     1
102
RTVSPost2010Prop38
140
0.0
102
RTVSPost2010PropOp38
 70
     1
102
RTVSPost2010Prop39
140
1.0
102
RTVSPost2010PropOp39
 70
     1
102
RTVSPost2010Prop40
 90
        0
102
RTVSPost2010PropOp40
 70
     1
102
RTVSPost2010Prop41ColorIndex
 90
       18
102
RTVSPost2010Prop41ColorRGB
 90
        0
102
RTVSPost2010PropOp41
 70
     1
102
RTVSPost2010Prop42
 90
       50
102
RTVSPost2010PropOp42
 70
     1
102
RTVSPost2010Prop43
 90
        3
102
RTVSPost2010PropOp43
 70
     1
102
RTVSPost2010Prop44ColorIndex
 90
        5
102
RTVSPost2010Prop44ColorRGB
 90
      255
102
RTVSPost2010PropOp44
 70
     1
102
RTVSPost2010Prop45
280
     0
102
RTVSPost2010PropOp45
 70
     1
102
RTVSPost2010Prop46
 90
       50
102
RTVSPost2010PropOp46
 70
     1
102
RTVSPost2010Prop47
 90
       50
102
RTVSPost2010PropOp47
 70
     1
102
RTVSPost2010Prop48
 90
       50
102
RTVSPost2010PropOp48
 70
     1
102
RTVSPost2010Prop49
280
     0
102
RTVSPost2010PropOp49
 70
     1
102
RTVSPost2010Prop50
 90
       50
102
RTVSPost2010PropOp50
 70
     1
102
RTVSPost2010Prop51ColorIndex
 90
      256
102
RTVSPost2010Prop51ColorRGB
 90
-16777216
102
RTVSPost2010PropOp51
 70
     0
102
RTVSPost2010Prop52
140
1.0
102
RTVSPost2010PropOp52
 70
     0
102
RTVSPost2010Prop53
 90
        2
102
RTVSPost2010PropOp53
 70
     1
102
RTVSPost2010Prop54
  1
strokes_ogs.tif
102
RTVSPost2010PropOp54
 70
     1
102
RTVSPost2010Prop55
280
     0
102
RTVSPost2010PropOp55
 70
     1
102
RTVSPost2010Prop56
140
1.0
102
RTVSPost2010PropOp56
 70
     1
102
RTVSPost2010Prop57
140
1.0
102
RTVSPost2010PropOp57
 70
     1
  0
XRECORD
  5
15FB
102
{ACAD_REACTORS
330
15FA
102
}
330
15FA
100
AcDbXrecord
280
     1
102
RTVSPost2010Prop28
280
     0
102
RTVSPost2010PropOp28
 70
     1
102
RTVSPost2010Prop29
280
     1
102
RTVSPost2010PropOp29
 70
     1
102
RTVSPost2010Prop30
280
     1
102
RTVSPost2010PropOp30
 70
     1
102
RTVSPost2010Prop31
280
     0
102
RTVSPost2010PropOp31
 70
     1
102
RTVSPost2010Prop32
280
     0
102
RTVSPost2010PropOp32
 70
     1
102
RTVSPost2010Prop33
280
     0
102
RTVSPost2010PropOp33
 70
     1
102
RTVSPost2010Prop34
280
     0
102
RTVSPost2010PropOp34
 70
     1
102
RTVSPost2010Prop35
280
     0
102
RTVSPost2010PropOp35
 70
     1
102
RTVSPost2010Prop36
280
     0
102
RTVSPost2010PropOp36
 70
     1
102
RTVSPost2010Prop37
 90
       50
102
RTVSPost2010PropOp37
 70
     1
102
RTVSPost2010Prop38
140
0.0
102
RTVSPost2010PropOp38
 70
     1
102
RTVSPost2010Prop39
140
1.0
102
RTVSPost2010PropOp39
 70
     1
102
RTVSPost2010Prop40
 90
        0
102
RTVSPost2010PropOp40
 70
     1
102
RTVSPost2010Prop41ColorIndex
 90
       18
102
RTVSPost2010Prop41ColorRGB
 90
        0
102
RTVSPost2010PropOp41
 70
     1
102
RTVSPost2010Prop42
 90
       50
102
RTVSPost2010PropOp42
 70
     1
102
RTVSPost2010Prop43
 90
        3
102
RTVSPost2010PropOp43
 70
     1
102
RTVSPost2010Prop44ColorIndex
 90
        5
102
RTVSPost2010Prop44ColorRGB
 90
      255
102
RTVSPost2010PropOp44
 70
     1
102
RTVSPost2010Prop45
280
     0
102
RTVSPost2010PropOp45
 70
     1
102
RTVSPost2010Prop46
 90
       50
102
RTVSPost2010PropOp46
 70
     1
102
RTVSPost2010Prop47
 90
       50
102
RTVSPost2010PropOp47
 70
     1
102
RTVSPost2010Prop48
 90
       50
102
RTVSPost2010PropOp48
 70
     1
102
RTVSPost2010Prop49
280
     0
102
RTVSPost2010PropOp49
 70
     1
102
RTVSPost2010Prop50
 90
       50
102
RTVSPost2010PropOp50
 70
     1
102
RTVSPost2010Prop51ColorIndex
 90
      256
102
RTVSPost2010Prop51ColorRGB
 90
-16777216
102
RTVSPost2010PropOp51
 70
     0
102
RTVSPost2010Prop52
140
1.0
102
RTVSPost2010PropOp52
 70
     0
102
RTVSPost2010Prop53
 90
        2
102
RTVSPost2010PropOp53
 70
     1
102
RTVSPost2010Prop54
  1
strokes_ogs.tif
102
RTVSPost2010PropOp54
 70
     1
102
RTVSPost2010Prop55
280
     0
102
RTVSPost2010PropOp55
 70
     1
102
RTVSPost2010Prop56
140
1.0
102
RTVSPost2010PropOp56
 70
     1
102
RTVSPost2010Prop57
140
1.0
102
RTVSPost2010PropOp57
 70
     1
  0
XRECORD
  5
15F9
102
{ACAD_REACTORS
330
15F8
102
}
330
15F8
100
AcDbXrecord
280
     1
102
RTVSPost2010Prop28
280
     0
102
RTVSPost2010PropOp28
 70
     1
102
RTVSPost2010Prop29
280
     1
102
RTVSPost2010PropOp29
 70
     1
102
RTVSPost2010Prop30
280
     1
102
RTVSPost2010PropOp30
 70
     1
102
RTVSPost2010Prop31
280
     0
102
RTVSPost2010PropOp31
 70
     1
102
RTVSPost2010Prop32
280
     0
102
RTVSPost2010PropOp32
 70
     1
102
RTVSPost2010Prop33
280
     0
102
RTVSPost2010PropOp33
 70
     1
102
RTVSPost2010Prop34
280
     0
102
RTVSPost2010PropOp34
 70
     1
102
RTVSPost2010Prop35
280
     0
102
RTVSPost2010PropOp35
 70
     1
102
RTVSPost2010Prop36
280
     0
102
RTVSPost2010PropOp36
 70
     1
102
RTVSPost2010Prop37
 90
       50
102
RTVSPost2010PropOp37
 70
     1
102
RTVSPost2010Prop38
140
0.0
102
RTVSPost2010PropOp38
 70
     1
102
RTVSPost2010Prop39
140
1.0
102
RTVSPost2010PropOp39
 70
     1
102
RTVSPost2010Prop40
 90
        0
102
RTVSPost2010PropOp40
 70
     1
102
RTVSPost2010Prop41ColorIndex
 90
       18
102
RTVSPost2010Prop41ColorRGB
 90
        0
102
RTVSPost2010PropOp41
 70
     1
102
RTVSPost2010Prop42
 90
       50
102
RTVSPost2010PropOp42
 70
     1
102
RTVSPost2010Prop43
 90
        3
102
RTVSPost2010PropOp43
 70
     1
102
RTVSPost2010Prop44ColorIndex
 90
        5
102
RTVSPost2010Prop44ColorRGB
 90
      255
102
RTVSPost2010PropOp44
 70
     1
102
RTVSPost2010Prop45
280
     0
102
RTVSPost2010PropOp45
 70
     1
102
RTVSPost2010Prop46
 90
       50
102
RTVSPost2010PropOp46
 70
     1
102
RTVSPost2010Prop47
 90
       50
102
RTVSPost2010PropOp47
 70
     1
102
RTVSPost2010Prop48
 90
       50
102
RTVSPost2010PropOp48
 70
     1
102
RTVSPost2010Prop49
280
     0
102
RTVSPost2010PropOp49
 70
     1
102
RTVSPost2010Prop50
 90
       50
102
RTVSPost2010PropOp50
 70
     1
102
RTVSPost2010Prop51ColorIndex
 90
      256
102
RTVSPost2010Prop51ColorRGB
 90
-16777216
102
RTVSPost2010PropOp51
 70
     0
102
RTVSPost2010Prop52
140
1.0
102
RTVSPost2010PropOp52
 70
     0
102
RTVSPost2010Prop53
 90
        2
102
RTVSPost2010PropOp53
 70
     1
102
RTVSPost2010Prop54
  1
strokes_ogs.tif
102
RTVSPost2010PropOp54
 70
     1
102
RTVSPost2010Prop55
280
     0
102
RTVSPost2010PropOp55
 70
     1
102
RTVSPost2010Prop56
140
1.0
102
RTVSPost2010PropOp56
 70
     1
102
RTVSPost2010Prop57
140
1.0
102
RTVSPost2010PropOp57
 70
     1
  0
XRECORD
  5
15F3
102
{ACAD_REACTORS
330
15F2
102
}
330
15F2
100
AcDbXrecord
280
     1
102
RTVSPost2010Prop28
280
     0
102
RTVSPost2010PropOp28
 70
     1
102
RTVSPost2010Prop29
280
     1
102
RTVSPost2010PropOp29
 70
     1
102
RTVSPost2010Prop30
280
     1
102
RTVSPost2010PropOp30
 70
     1
102
RTVSPost2010Prop31
280
     0
102
RTVSPost2010PropOp31
 70
     1
102
RTVSPost2010Prop32
280
     0
102
RTVSPost2010PropOp32
 70
     1
102
RTVSPost2010Prop33
280
     0
102
RTVSPost2010PropOp33
 70
     1
102
RTVSPost2010Prop34
280
     0
102
RTVSPost2010PropOp34
 70
     1
102
RTVSPost2010Prop35
280
     0
102
RTVSPost2010PropOp35
 70
     1
102
RTVSPost2010Prop36
280
     0
102
RTVSPost2010PropOp36
 70
     1
102
RTVSPost2010Prop37
 90
       50
102
RTVSPost2010PropOp37
 70
     1
102
RTVSPost2010Prop38
140
0.0
102
RTVSPost2010PropOp38
 70
     1
102
RTVSPost2010Prop39
140
1.0
102
RTVSPost2010PropOp39
 70
     1
102
RTVSPost2010Prop40
 90
        0
102
RTVSPost2010PropOp40
 70
     1
102
RTVSPost2010Prop41ColorIndex
 90
       18
102
RTVSPost2010Prop41ColorRGB
 90
        0
102
RTVSPost2010PropOp41
 70
     1
102
RTVSPost2010Prop42
 90
       50
102
RTVSPost2010PropOp42
 70
     1
102
RTVSPost2010Prop43
 90
        3
102
RTVSPost2010PropOp43
 70
     1
102
RTVSPost2010Prop44ColorIndex
 90
        5
102
RTVSPost2010Prop44ColorRGB
 90
      255
102
RTVSPost2010PropOp44
 70
     1
102
RTVSPost2010Prop45
280
     0
102
RTVSPost2010PropOp45
 70
     1
102
RTVSPost2010Prop46
 90
       50
102
RTVSPost2010PropOp46
 70
     1
102
RTVSPost2010Prop47
 90
       50
102
RTVSPost2010PropOp47
 70
     1
102
RTVSPost2010Prop48
 90
       50
102
RTVSPost2010PropOp48
 70
     1
102
RTVSPost2010Prop49
280
     0
102
RTVSPost2010PropOp49
 70
     1
102
RTVSPost2010Prop50
 90
       50
102
RTVSPost2010PropOp50
 70
     1
102
RTVSPost2010Prop51ColorIndex
 90
      256
102
RTVSPost2010Prop51ColorRGB
 90
-16777216
102
RTVSPost2010PropOp51
 70
     0
102
RTVSPost2010Prop52
140
1.0
102
RTVSPost2010PropOp52
 70
     0
102
RTVSPost2010Prop53
 90
        2
102
RTVSPost2010PropOp53
 70
     1
102
RTVSPost2010Prop54
  1
strokes_ogs.tif
102
RTVSPost2010PropOp54
 70
     1
102
RTVSPost2010Prop55
280
     0
102
RTVSPost2010PropOp55
 70
     1
102
RTVSPost2010Prop56
140
1.0
102
RTVSPost2010PropOp56
 70
     1
102
RTVSPost2010Prop57
140
1.0
102
RTVSPost2010PropOp57
 70
     1
  0
XRECORD
  5
15F5
102
{ACAD_REACTORS
330
15F4
102
}
330
15F4
100
AcDbXrecord
280
     1
102
RTVSPost2010Prop28
280
     0
102
RTVSPost2010PropOp28
 70
     1
102
RTVSPost2010Prop29
280
     1
102
RTVSPost2010PropOp29
 70
     1
102
RTVSPost2010Prop30
280
     1
102
RTVSPost2010PropOp30
 70
     1
102
RTVSPost2010Prop31
280
     0
102
RTVSPost2010PropOp31
 70
     1
102
RTVSPost2010Prop32
280
     0
102
RTVSPost2010PropOp32
 70
     1
102
RTVSPost2010Prop33
280
     0
102
RTVSPost2010PropOp33
 70
     1
102
RTVSPost2010Prop34
280
     0
102
RTVSPost2010PropOp34
 70
     1
102
RTVSPost2010Prop35
280
     0
102
RTVSPost2010PropOp35
 70
     1
102
RTVSPost2010Prop36
280
     0
102
RTVSPost2010PropOp36
 70
     1
102
RTVSPost2010Prop37
 90
       50
102
RTVSPost2010PropOp37
 70
     1
102
RTVSPost2010Prop38
140
0.0
102
RTVSPost2010PropOp38
 70
     1
102
RTVSPost2010Prop39
140
1.0
102
RTVSPost2010PropOp39
 70
     1
102
RTVSPost2010Prop40
 90
        0
102
RTVSPost2010PropOp40
 70
     1
102
RTVSPost2010Prop41ColorIndex
 90
       18
102
RTVSPost2010Prop41ColorRGB
 90
        0
102
RTVSPost2010PropOp41
 70
     1
102
RTVSPost2010Prop42
 90
       50
102
RTVSPost2010PropOp42
 70
     1
102
RTVSPost2010Prop43
 90
        3
102
RTVSPost2010PropOp43
 70
     1
102
RTVSPost2010Prop44ColorIndex
 90
        5
102
RTVSPost2010Prop44ColorRGB
 90
      255
102
RTVSPost2010PropOp44
 70
     1
102
RTVSPost2010Prop45
280
     0
102
RTVSPost2010PropOp45
 70
     1
102
RTVSPost2010Prop46
 90
       50
102
RTVSPost2010PropOp46
 70
     1
102
RTVSPost2010Prop47
 90
       50
102
RTVSPost2010PropOp47
 70
     1
102
RTVSPost2010Prop48
 90
       50
102
RTVSPost2010PropOp48
 70
     1
102
RTVSPost2010Prop49
280
     0
102
RTVSPost2010PropOp49
 70
     1
102
RTVSPost2010Prop50
 90
       50
102
RTVSPost2010PropOp50
 70
     1
102
RTVSPost2010Prop51ColorIndex
 90
      256
102
RTVSPost2010Prop51ColorRGB
 90
-16777216
102
RTVSPost2010PropOp51
 70
     0
102
RTVSPost2010Prop52
140
1.0
102
RTVSPost2010PropOp52
 70
     0
102
RTVSPost2010Prop53
 90
        2
102
RTVSPost2010PropOp53
 70
     1
102
RTVSPost2010Prop54
  1
strokes_ogs.tif
102
RTVSPost2010PropOp54
 70
     1
102
RTVSPost2010Prop55
280
     0
102
RTVSPost2010PropOp55
 70
     1
102
RTVSPost2010Prop56
140
1.0
102
RTVSPost2010PropOp56
 70
     1
102
RTVSPost2010Prop57
140
1.0
102
RTVSPost2010PropOp57
 70
     1
  0
XRECORD
  5
15E5
102
{ACAD_REACTORS
330
15E4
102
}
330
15E4
100
AcDbXrecord
280
     1
102
RTVSPost2010Prop28
280
     0
102
RTVSPost2010PropOp28
 70
     1
102
RTVSPost2010Prop29
280
     1
102
RTVSPost2010PropOp29
 70
     1
102
RTVSPost2010Prop30
280
     1
102
RTVSPost2010PropOp30
 70
     1
102
RTVSPost2010Prop31
280
     0
102
RTVSPost2010PropOp31
 70
     1
102
RTVSPost2010Prop32
280
     0
102
RTVSPost2010PropOp32
 70
     1
102
RTVSPost2010Prop33
280
     0
102
RTVSPost2010PropOp33
 70
     1
102
RTVSPost2010Prop34
280
     0
102
RTVSPost2010PropOp34
 70
     1
102
RTVSPost2010Prop35
280
     0
102
RTVSPost2010PropOp35
 70
     1
102
RTVSPost2010Prop36
280
     0
102
RTVSPost2010PropOp36
 70
     1
102
RTVSPost2010Prop37
 90
       50
102
RTVSPost2010PropOp37
 70
     1
102
RTVSPost2010Prop38
140
0.0
102
RTVSPost2010PropOp38
 70
     1
102
RTVSPost2010Prop39
140
1.0
102
RTVSPost2010PropOp39
 70
     1
102
RTVSPost2010Prop40
 90
        0
102
RTVSPost2010PropOp40
 70
     1
102
RTVSPost2010Prop41ColorIndex
 90
       18
102
RTVSPost2010Prop41ColorRGB
 90
        0
102
RTVSPost2010PropOp41
 70
     1
102
RTVSPost2010Prop42
 90
       50
102
RTVSPost2010PropOp42
 70
     1
102
RTVSPost2010Prop43
 90
        3
102
RTVSPost2010PropOp43
 70
     1
102
RTVSPost2010Prop44ColorIndex
 90
        5
102
RTVSPost2010Prop44ColorRGB
 90
      255
102
RTVSPost2010PropOp44
 70
     1
102
RTVSPost2010Prop45
280
     0
102
RTVSPost2010PropOp45
 70
     1
102
RTVSPost2010Prop46
 90
       50
102
RTVSPost2010PropOp46
 70
     1
102
RTVSPost2010Prop47
 90
       50
102
RTVSPost2010PropOp47
 70
     1
102
RTVSPost2010Prop48
 90
       50
102
RTVSPost2010PropOp48
 70
     1
102
RTVSPost2010Prop49
280
     0
102
RTVSPost2010PropOp49
 70
     1
102
RTVSPost2010Prop50
 90
       50
102
RTVSPost2010PropOp50
 70
     1
102
RTVSPost2010Prop51ColorIndex
 90
      256
102
RTVSPost2010Prop51ColorRGB
 90
-16777216
102
RTVSPost2010PropOp51
 70
     0
102
RTVSPost2010Prop52
140
1.0
102
RTVSPost2010PropOp52
 70
     0
102
RTVSPost2010Prop53
 90
        2
102
RTVSPost2010PropOp53
 70
     1
102
RTVSPost2010Prop54
  1
strokes_ogs.tif
102
RTVSPost2010PropOp54
 70
     1
102
RTVSPost2010Prop55
280
     0
102
RTVSPost2010PropOp55
 70
     1
102
RTVSPost2010Prop56
140
1.0
102
RTVSPost2010PropOp56
 70
     1
102
RTVSPost2010Prop57
140
1.0
102
RTVSPost2010PropOp57
 70
     1
  0
XRECORD
  5
15D9
102
{ACAD_REACTORS
330
15D8
102
}
330
15D8
100
AcDbXrecord
280
     1
102
RTVSPost2010Prop28
280
     0
102
RTVSPost2010PropOp28
 70
     1
102
RTVSPost2010Prop29
280
     1
102
RTVSPost2010PropOp29
 70
     1
102
RTVSPost2010Prop30
280
     1
102
RTVSPost2010PropOp30
 70
     1
102
RTVSPost2010Prop31
280
     0
102
RTVSPost2010PropOp31
 70
     1
102
RTVSPost2010Prop32
280
     0
102
RTVSPost2010PropOp32
 70
     1
102
RTVSPost2010Prop33
280
     0
102
RTVSPost2010PropOp33
 70
     1
102
RTVSPost2010Prop34
280
     0
102
RTVSPost2010PropOp34
 70
     1
102
RTVSPost2010Prop35
280
     0
102
RTVSPost2010PropOp35
 70
     1
102
RTVSPost2010Prop36
280
     0
102
RTVSPost2010PropOp36
 70
     1
102
RTVSPost2010Prop37
 90
       50
102
RTVSPost2010PropOp37
 70
     1
102
RTVSPost2010Prop38
140
0.0
102
RTVSPost2010PropOp38
 70
     1
102
RTVSPost2010Prop39
140
1.0
102
RTVSPost2010PropOp39
 70
     1
102
RTVSPost2010Prop40
 90
        0
102
RTVSPost2010PropOp40
 70
     1
102
RTVSPost2010Prop41ColorIndex
 90
       18
102
RTVSPost2010Prop41ColorRGB
 90
        0
102
RTVSPost2010PropOp41
 70
     1
102
RTVSPost2010Prop42
 90
       50
102
RTVSPost2010PropOp42
 70
     1
102
RTVSPost2010Prop43
 90
        3
102
RTVSPost2010PropOp43
 70
     1
102
RTVSPost2010Prop44ColorIndex
 90
        5
102
RTVSPost2010Prop44ColorRGB
 90
      255
102
RTVSPost2010PropOp44
 70
     1
102
RTVSPost2010Prop45
280
     0
102
RTVSPost2010PropOp45
 70
     1
102
RTVSPost2010Prop46
 90
       50
102
RTVSPost2010PropOp46
 70
     1
102
RTVSPost2010Prop47
 90
       50
102
RTVSPost2010PropOp47
 70
     1
102
RTVSPost2010Prop48
 90
       50
102
RTVSPost2010PropOp48
 70
     1
102
RTVSPost2010Prop49
280
     0
102
RTVSPost2010PropOp49
 70
     1
102
RTVSPost2010Prop50
 90
       50
102
RTVSPost2010PropOp50
 70
     1
102
RTVSPost2010Prop51ColorIndex
 90
      256
102
RTVSPost2010Prop51ColorRGB
 90
-16777216
102
RTVSPost2010PropOp51
 70
     0
102
RTVSPost2010Prop52
140
1.0
102
RTVSPost2010PropOp52
 70
     0
102
RTVSPost2010Prop53
 90
        2
102
RTVSPost2010PropOp53
 70
     1
102
RTVSPost2010Prop54
  1
strokes_ogs.tif
102
RTVSPost2010PropOp54
 70
     1
102
RTVSPost2010Prop55
280
     0
102
RTVSPost2010PropOp55
 70
     1
102
RTVSPost2010Prop56
140
1.0
102
RTVSPost2010PropOp56
 70
     1
102
RTVSPost2010Prop57
140
1.0
102
RTVSPost2010PropOp57
 70
     1
  0
XRECORD
  5
15F7
102
{ACAD_REACTORS
330
15F6
102
}
330
15F6
100
AcDbXrecord
280
     1
102
RTVSPost2010Prop28
280
     0
102
RTVSPost2010PropOp28
 70
     1
102
RTVSPost2010Prop29
280
     1
102
RTVSPost2010PropOp29
 70
     1
102
RTVSPost2010Prop30
280
     1
102
RTVSPost2010PropOp30
 70
     1
102
RTVSPost2010Prop31
280
     0
102
RTVSPost2010PropOp31
 70
     1
102
RTVSPost2010Prop32
280
     0
102
RTVSPost2010PropOp32
 70
     1
102
RTVSPost2010Prop33
280
     0
102
RTVSPost2010PropOp33
 70
     1
102
RTVSPost2010Prop34
280
     0
102
RTVSPost2010PropOp34
 70
     1
102
RTVSPost2010Prop35
280
     0
102
RTVSPost2010PropOp35
 70
     1
102
RTVSPost2010Prop36
280
     0
102
RTVSPost2010PropOp36
 70
     1
102
RTVSPost2010Prop37
 90
       50
102
RTVSPost2010PropOp37
 70
     1
102
RTVSPost2010Prop38
140
0.0
102
RTVSPost2010PropOp38
 70
     1
102
RTVSPost2010Prop39
140
1.0
102
RTVSPost2010PropOp39
 70
     1
102
RTVSPost2010Prop40
 90
        0
102
RTVSPost2010PropOp40
 70
     1
102
RTVSPost2010Prop41ColorIndex
 90
       18
102
RTVSPost2010Prop41ColorRGB
 90
        0
102
RTVSPost2010PropOp41
 70
     1
102
RTVSPost2010Prop42
 90
       50
102
RTVSPost2010PropOp42
 70
     1
102
RTVSPost2010Prop43
 90
        3
102
RTVSPost2010PropOp43
 70
     1
102
RTVSPost2010Prop44ColorIndex
 90
        5
102
RTVSPost2010Prop44ColorRGB
 90
      255
102
RTVSPost2010PropOp44
 70
     1
102
RTVSPost2010Prop45
280
     0
102
RTVSPost2010PropOp45
 70
     1
102
RTVSPost2010Prop46
 90
       50
102
RTVSPost2010PropOp46
 70
     1
102
RTVSPost2010Prop47
 90
       50
102
RTVSPost2010PropOp47
 70
     1
102
RTVSPost2010Prop48
 90
       50
102
RTVSPost2010PropOp48
 70
     1
102
RTVSPost2010Prop49
280
     0
102
RTVSPost2010PropOp49
 70
     1
102
RTVSPost2010Prop50
 90
       50
102
RTVSPost2010PropOp50
 70
     1
102
RTVSPost2010Prop51ColorIndex
 90
      256
102
RTVSPost2010Prop51ColorRGB
 90
-16777216
102
RTVSPost2010PropOp51
 70
     0
102
RTVSPost2010Prop52
140
1.0
102
RTVSPost2010PropOp52
 70
     0
102
RTVSPost2010Prop53
 90
        2
102
RTVSPost2010PropOp53
 70
     1
102
RTVSPost2010Prop54
  1
strokes_ogs.tif
102
RTVSPost2010PropOp54
 70
     1
102
RTVSPost2010Prop55
280
     0
102
RTVSPost2010PropOp55
 70
     1
102
RTVSPost2010Prop56
140
1.0
102
RTVSPost2010PropOp56
 70
     1
102
RTVSPost2010Prop57
140
1.0
102
RTVSPost2010PropOp57
 70
     1
  0
ENDSEC
  0
EOF
