  0
SECTION
  2
HEADER
  9
$ACADVER
  1
AC1024
  9
$ACADMAINTVER
 70
   205
  9
$DWGCODEPAGE
  3
ANSI_936
  9
$LASTSAVEDBY
  1
cbn27
  9
$INSBASE
 10
0.0
 20
0.0
 30
0.0
  9
$EXTMIN
 10
10.3
 20
-406.3
 30
0.0
  9
$EXTMAX
 10
284.3
 20
-32.3
 30
0.0
  9
$LIMMIN
 10
0.0
 20
0.0
  9
$LIMMAX
 10
12.0
 20
9.0
  9
$ORTHOMODE
 70
     0
  9
$REGENMODE
 70
     1
  9
$FILLMODE
 70
     1
  9
$QTEXTMODE
 70
     0
  9
$MIRRTEXT
 70
     0
  9
$LTSCALE
 40
1.0
  9
$ATTMODE
 70
     1
  9
$TEXTSIZE
 40
0.2
  9
$TRACEWID
 40
0.05
  9
$TEXTSTYLE
  7
Standard
  9
$CLAYER
  8
0
  9
$CELTYPE
  6
CONTINUOUS
  9
$CECOLOR
 62
   256
  9
$CELTSCALE
 40
1.0
  9
$DISPSILH
 70
     0
  9
$DIMSCALE
 40
1.0
  9
$DIMASZ
 40
0.18
  9
$DIMEXO
 40
0.0625
  9
$DIMDLI
 40
0.38
  9
$DIMRND
 40
0.0
  9
$DIMDLE
 40
0.0
  9
$DIMEXE
 40
0.18
  9
$DIMTP
 40
0.0
  9
$DIMTM
 40
0.0
  9
$DIMTXT
 40
0.18
  9
$DIMCEN
 40
0.09
  9
$DIMTSZ
 40
0.0
  9
$DIMTOL
 70
     0
  9
$DIMLIM
 70
     0
  9
$DIMTIH
 70
     1
  9
$DIMTOH
 70
     1
  9
$DIMSE1
 70
     0
  9
$DIMSE2
 70
     0
  9
$DIMTAD
 70
     0
  9
$DIMZIN
 70
     0
  9
$DIMBLK
  1

  9
$DIMASO
 70
     1
  9
$DIMSHO
 70
     1
  9
$DIMPOST
  1

  9
$DIMAPOST
  1

  9
$DIMALT
 70
     0
  9
$DIMALTD
 70
     2
  9
$DIMALTF
 40
25.4
  9
$DIMLFAC
 40
1.0
  9
$DIMTOFL
 70
     0
  9
$DIMTVP
 40
0.0
  9
$DIMTIX
 70
     0
  9
$DIMSOXD
 70
     0
  9
$DIMSAH
 70
     0
  9
$DIMBLK1
  1

  9
$DIMBLK2
  1

  9
$DIMSTYLE
  2
Standard
  9
$DIMCLRD
 70
     0
  9
$DIMCLRE
 70
     0
  9
$DIMCLRT
 70
     0
  9
$DIMTFAC
 40
1.0
  9
$DIMGAP
 40
0.09
  9
$DIMJUST
 70
     0
  9
$DIMSD1
 70
     0
  9
$DIMSD2
 70
     0
  9
$DIMTOLJ
 70
     1
  9
$DIMTZIN
 70
     0
  9
$DIMALTZ
 70
     0
  9
$DIMALTTZ
 70
     0
  9
$DIMUPT
 70
     0
  9
$DIMDEC
 70
     4
  9
$DIMTDEC
 70
     4
  9
$DIMALTU
 70
     2
  9
$DIMALTTD
 70
     2
  9
$DIMTXSTY
  7
Standard
  9
$DIMAUNIT
 70
     0
  9
$DIMADEC
 70
     0
  9
$DIMALTRND
 40
0.0
  9
$DIMAZIN
 70
     0
  9
$DIMDSEP
 70
    46
  9
$DIMATFIT
 70
     3
  9
$DIMFRAC
 70
     0
  9
$DIMLDRBLK
  1

  9
$DIMLUNIT
 70
     2
  9
$DIMLWD
 70
    -2
  9
$DIMLWE
 70
    -2
  9
$DIMTMOVE
 70
     0
  9
$DIMFXL
 40
1.0
  9
$DIMFXLON
 70
     0
  9
$DIMJOGANG
 40
0.7853981633974483
  9
$DIMTFILL
 70
     0
  9
$DIMTFILLCLR
 70
     0
  9
$DIMARCSYM
 70
     0
  9
$DIMLTYPE
  6

  9
$DIMLTEX1
  6

  9
$DIMLTEX2
  6

  9
$DIMTXTDIRECTION
 70
     0
  9
$LUNITS
 70
     2
  9
$LUPREC
 70
     4
  9
$SKETCHINC
 40
0.1
  9
$FILLETRAD
 40
0.0
  9
$AUNITS
 70
     0
  9
$AUPREC
 70
     0
  9
$MENU
  1
.
  9
$ELEVATION
 40
0.0
  9
$PELEVATION
 40
0.0
  9
$THICKNESS
 40
0.0
  9
$LIMCHECK
 70
     0
  9
$CHAMFERA
 40
0.0
  9
$CHAMFERB
 40
0.0
  9
$CHAMFERC
 40
0.0
  9
$CHAMFERD
 40
0.0
  9
$SKPOLY
 70
     0
  9
$TDCREATE
 40
2459413.676942095
  9
$TDUCREATE
 40
2459413.343608762
  9
$TDUPDATE
 40
2459447.049771227
  9
$TDUUPDATE
 40
2459446.716437894
  9
$TDINDWG
 40
0.2709255093
  9
$TDUSRTIMER
 40
0.2709250347
  9
$USRTIMER
 70
     1
  9
$ANGBASE
 50
0.0
  9
$ANGDIR
 70
     1
  9
$PDMODE
 70
     0
  9
$PDSIZE
 40
0.0
  9
$PLINEWID
 40
0.0
  9
$SPLFRAME
 70
     0
  9
$SPLINETYPE
 70
     6
  9
$SPLINESEGS
 70
     8
  9
$HANDSEED
  5
576
  9
$SURFTAB1
 70
     6
  9
$SURFTAB2
 70
     6
  9
$SURFTYPE
 70
     6
  9
$SURFU
 70
     6
  9
$SURFV
 70
     6
  9
$UCSBASE
  2

  9
$UCSNAME
  2

  9
$UCSORG
 10
0.0
 20
0.0
 30
0.0
  9
$UCSXDIR
 10
1.0
 20
0.0
 30
0.0
  9
$UCSYDIR
 10
0.0
 20
1.0
 30
0.0
  9
$UCSORTHOREF
  2

  9
$UCSORTHOVIEW
 70
     0
  9
$UCSORGTOP
 10
0.0
 20
0.0
 30
0.0
  9
$UCSORGBOTTOM
 10
0.0
 20
0.0
 30
0.0
  9
$UCSORGLEFT
 10
0.0
 20
0.0
 30
0.0
  9
$UCSORGRIGHT
 10
0.0
 20
0.0
 30
0.0
  9
$UCSORGFRONT
 10
0.0
 20
0.0
 30
0.0
  9
$UCSORGBACK
 10
0.0
 20
0.0
 30
0.0
  9
$PUCSBASE
  2

  9
$PUCSNAME
  2

  9
$PUCSORG
 10
0.0
 20
0.0
 30
0.0
  9
$PUCSXDIR
 10
1.0
 20
0.0
 30
0.0
  9
$PUCSYDIR
 10
0.0
 20
1.0
 30
0.0
  9
$PUCSORTHOREF
  2

  9
$PUCSORTHOVIEW
 70
     0
  9
$PUCSORGTOP
 10
0.0
 20
0.0
 30
0.0
  9
$PUCSORGBOTTOM
 10
0.0
 20
0.0
 30
0.0
  9
$PUCSORGLEFT
 10
0.0
 20
0.0
 30
0.0
  9
$PUCSORGRIGHT
 10
0.0
 20
0.0
 30
0.0
  9
$PUCSORGFRONT
 10
0.0
 20
0.0
 30
0.0
  9
$PUCSORGBACK
 10
0.0
 20
0.0
 30
0.0
  9
$USERI1
 70
     0
  9
$USERI2
 70
     0
  9
$USERI3
 70
     0
  9
$USERI4
 70
     0
  9
$USERI5
 70
     0
  9
$USERR1
 40
0.0
  9
$USERR2
 40
0.0
  9
$USERR3
 40
0.0
  9
$USERR4
 40
0.0
  9
$USERR5
 40
0.0
  9
$WORLDVIEW
 70
     1
  9
$SHADEDGE
 70
     3
  9
$SHADEDIF
 70
    70
  9
$TILEMODE
 70
     1
  9
$MAXACTVP
 70
    64
  9
$PINSBASE
 10
0.0
 20
0.0
 30
0.0
  9
$PLIMCHECK
 70
     0
  9
$PEXTMIN
 10
1.000000000000000E+20
 20
1.000000000000000E+20
 30
1.000000000000000E+20
  9
$PEXTMAX
 10
-1.000000000000000E+20
 20
-1.000000000000000E+20
 30
-1.000000000000000E+20
  9
$PLIMMIN
 10
0.0
 20
0.0
  9
$PLIMMAX
 10
12.0
 20
9.0
  9
$UNITMODE
 70
     0
  9
$VISRETAIN
 70
     1
  9
$PLINEGEN
 70
     0
  9
$PSLTSCALE
 70
     1
  9
$TREEDEPTH
 70
  3020
  9
$CMLSTYLE
  2
Standard
  9
$CMLJUST
 70
     0
  9
$CMLSCALE
 40
1.0
  9
$PROXYGRAPHICS
 70
     1
  9
$MEASUREMENT
 70
     1
  9
$CELWEIGHT
370
    -1
  9
$ENDCAPS
280
     0
  9
$JOINSTYLE
280
     0
  9
$LWDISPLAY
290
     0
  9
$INSUNITS
 70
     0
  9
$HYPERLINKBASE
  1

  9
$STYLESHEET
  1

  9
$XEDIT
290
     1
  9
$CEPSNTYPE
380
     0
  9
$PSTYLEMODE
290
     1
  9
$FINGERPRINTGUID
  2
{F5427E51-F0A0-4AB9-8D70-6735D4123B88}
  9
$VERSIONGUID
  2
{CAEFB7F6-9CB8-4165-8091-CFA12D2742D2}
  9
$EXTNAMES
290
     1
  9
$PSVPSCALE
 40
0.0
  9
$OLESTARTUP
290
     0
  9
$SORTENTS
280
   127
  9
$INDEXCTL
280
     0
  9
$HIDETEXT
280
     0
  9
$XCLIPFRAME
280
     2
  9
$HALOGAP
280
     0
  9
$OBSCOLOR
 70
   257
  9
$OBSLTYPE
280
     0
  9
$INTERSECTIONDISPLAY
280
     0
  9
$INTERSECTIONCOLOR
 70
   257
  9
$DIMASSOC
280
     1
  9
$PROJECTNAME
  1

  9
$CAMERADISPLAY
290
     0
  9
$LENSLENGTH
 40
50.0
  9
$CAMERAHEIGHT
 40
0.0
  9
$STEPSPERSEC
 40
2.0
  9
$STEPSIZE
 40
6.0
  9
$3DDWFPREC
 40
2.0
  9
$PSOLWIDTH
 40
0.25
  9
$PSOLHEIGHT
 40
4.0
  9
$LOFTANG1
 40
1.570796326794896
  9
$LOFTANG2
 40
1.570796326794896
  9
$LOFTMAG1
 40
0.0
  9
$LOFTMAG2
 40
0.0
  9
$LOFTPARAM
 70
     7
  9
$LOFTNORMALS
280
     1
  9
$LATITUDE
 40
37.795
  9
$LONGITUDE
 40
-122.394
  9
$NORTHDIRECTION
 40
0.0
  9
$TIMEZONE
 70
 -8000
  9
$LIGHTGLYPHDISPLAY
280
     1
  9
$TILEMODELIGHTSYNCH
280
     1
  9
$CMATERIAL
347
11
  9
$SOLIDHIST
280
     0
  9
$SHOWHIST
280
     1
  9
$DWFFRAME
280
     2
  9
$DGNFRAME
280
     0
  9
$REALWORLDSCALE
290
     1
  9
$INTERFERECOLOR
 62
     1
  9
$INTERFEREOBJVS
345
33
  9
$INTERFEREVPVS
346
30
  9
$CSHADOW
280
     0
  9
$SHADOWPLANELOCATION
 40
0.0
  0
ENDSEC
  0
SECTION
  2
CLASSES
  0
CLASS
  1
ACDBDICTIONARYWDFLT
  2
AcDbDictionaryWithDefault
  3
ObjectDBX Classes
 90
        0
 91
        1
280
     0
281
     0
  0
CLASS
  1
MATERIAL
  2
AcDbMaterial
  3
ObjectDBX Classes
 90
     1153
 91
        3
280
     0
281
     0
  0
CLASS
  1
VISUALSTYLE
  2
AcDbVisualStyle
  3
ObjectDBX Classes
 90
     4095
 91
       24
280
     0
281
     0
  0
CLASS
  1
SCALE
  2
AcDbScale
  3
ObjectDBX Classes
 90
     1153
 91
       17
280
     0
281
     0
  0
CLASS
  1
TABLESTYLE
  2
AcDbTableStyle
  3
ObjectDBX Classes
 90
     4095
 91
        1
280
     0
281
     0
  0
CLASS
  1
MLEADERSTYLE
  2
AcDbMLeaderStyle
  3
ACDB_MLEADERSTYLE_CLASS
 90
     4095
 91
        1
280
     0
281
     0
  0
CLASS
  1
ACDBSECTIONVIEWSTYLE
  2
AcDbSectionViewStyle
  3
ObjectDBX Classes
 90
     1025
 91
        2
280
     0
281
     0
  0
CLASS
  1
ACDBDETAILVIEWSTYLE
  2
AcDbDetailViewStyle
  3
ObjectDBX Classes
 90
     1025
 91
        2
280
     0
281
     0
  0
CLASS
  1
DICTIONARYVAR
  2
AcDbDictionaryVar
  3
ObjectDBX Classes
 90
        0
 91
        9
280
     0
281
     0
  0
CLASS
  1
CELLSTYLEMAP
  2
AcDbCellStyleMap
  3
ObjectDBX Classes
 90
     1152
 91
        2
280
     0
281
     0
  0
CLASS
  1
ACDBASSOCNETWORK
  2
AcDbAssocNetwork
  3
ObjectDBX Classes
 90
     1025
 91
        0
280
     0
281
     0
  0
CLASS
  1
ACDBASSOCVARIABLE
  2
AcDbAssocVariable
  3
ObjectDBX Classes
 90
     1025
 91
        0
280
     0
281
     0
  0
CLASS
  1
ACDBASSOCVALUEDEPENDENCY
  2
AcDbAssocValueDependency
  3
ObjectDBX Classes
 90
     1025
 91
        0
280
     0
281
     0
  0
CLASS
  1
ACDBASSOCDEPENDENCY
  2
AcDbAssocDependency
  3
ObjectDBX Classes
 90
     1025
 91
        0
280
     0
281
     0
  0
CLASS
  1
ASSOCDIMDEPENDENCYBODY
  2
AcDbAssocDimDependencyBody
  3
ObjectDBX Classes
 90
     1025
 91
        0
280
     0
281
     0
  0
CLASS
  1
ACDBASSOC2DCONSTRAINTGROUP
  2
AcDbAssoc2dConstraintGroup
  3
ObjectDBX Classes
 90
     1025
 91
        0
280
     0
281
     0
  0
CLASS
  1
ACDBASSOCGEOMDEPENDENCY
  2
AcDbAssocGeomDependency
  3
ObjectDBX Classes
 90
     1025
 91
        0
280
     0
281
     0
  0
ENDSEC
  0
SECTION
  2
TABLES
  0
TABLE
  2
VPORT
  5
8
330
0
100
AcDbSymbolTable
 70
     1
  0
VPORT
  5
7D
330
8
100
AcDbSymbolTableRecord
100
AcDbViewportTableRecord
  2
*Active
 70
     0
 10
0.0
 20
0.0
 11
1.0
 21
1.0
 12
50.14592848341084
 22
-100.8885650663071
 13
0.0
 23
0.0
 14
1.0
 24
1.0
 15
0.0
 25
0.0
 16
0.0
 26
0.0
 36
1.0
 17
0.0
 27
0.0
 37
0.0
 40
291.0060158669694
 41
2.179019384264538
 42
50.0
 43
0.0
 44
0.0
 50
0.0
 51
0.0
 71
     0
 72
   100
 73
     1
 74
     1
 75
     0
 76
     0
 77
     0
 78
     0
281
     0
 65
     1
110
0.0
120
0.0
130
0.0
111
1.0
121
0.0
131
0.0
112
0.0
122
1.0
132
0.0
 79
     0
146
0.0
348
2F
 60
     3
 61
     5
292
     1
282
     1
141
0.0
142
0.0
 63
   250
421
  3355443
1001
ACAD_NAV_VCDISPLAY
1070
     3
  0
ENDTAB
  0
TABLE
  2
LTYPE
  5
5
330
0
100
AcDbSymbolTable
 70
     5
  0
LTYPE
  5
5A
330
5
100
AcDbSymbolTableRecord
100
AcDbLinetypeTableRecord
  2
ByBlock
 70
     0
  3

 72
    65
 73
     0
 40
0.0
  0
LTYPE
  5
5B
330
5
100
AcDbSymbolTableRecord
100
AcDbLinetypeTableRecord
  2
ByLayer
 70
     0
  3

 72
    65
 73
     0
 40
0.0
  0
LTYPE
  5
5C
330
5
100
AcDbSymbolTableRecord
100
AcDbLinetypeTableRecord
  2
CONTINUOUS
 70
     0
  3
Solid line
 72
    65
 73
     0
 40
0.0
  0
LTYPE
  5
73
330
5
100
AcDbSymbolTableRecord
100
AcDbLinetypeTableRecord
  2
DASHDOT
 70
     0
  3
Dash Dot ____ _ ____ _
 72
    65
 73
     4
 40
2.0
 49
1.25
 74
     0
 49
-0.25
 74
     0
 49
0.25
 74
     0
 49
-0.25
 74
     0
  0
LTYPE
  5
74
330
5
100
AcDbSymbolTableRecord
100
AcDbLinetypeTableRecord
  2
DASHED
 70
     0
  3
Dashed __ __ __ __ __
 72
    65
 73
     2
 40
0.75
 49
0.5
 74
     0
 49
-0.25
 74
     0
  0
LTYPE
  5
75
330
5
100
AcDbSymbolTableRecord
100
AcDbLinetypeTableRecord
  2
DOTTED
 70
     0
  3
Dotted .  .  .  .
 72
    65
 73
     2
 40
0.2
 49
0.0
 74
     0
 49
-0.2
 74
     0
  0
ENDTAB
  0
TABLE
  2
LAYER
  5
2
102
{ACAD_XDICTIONARY
360
38E
102
}
330
0
100
AcDbSymbolTable
 70
     3
  0
LAYER
  5
54
102
{ACAD_XDICTIONARY
360
387
102
}
330
2
100
AcDbSymbolTableRecord
100
AcDbLayerTableRecord
  2
0
 70
     0
 62
     7
  6
CONTINUOUS
370
    -3
390
F
347
21
  0
LAYER
  5
7A
102
{ACAD_XDICTIONARY
360
389
102
}
330
2
100
AcDbSymbolTableRecord
100
AcDbLayerTableRecord
  2
BLACK
 70
     0
 62
     7
  6
CONTINUOUS
370
    -3
390
F
347
21
  0
LAYER
  5
473
330
2
100
AcDbSymbolTableRecord
100
AcDbLayerTableRecord
  2
*ADSK_CONSTRAINTS
 70
     0
 62
     7
  6
CONTINUOUS
370
    -3
390
F
347
21
  0
ENDTAB
  0
TABLE
  2
STYLE
  5
3
330
0
100
AcDbSymbolTable
 70
     6
  0
STYLE
  5
55
330
3
100
AcDbSymbolTableRecord
100
AcDbTextStyleTableRecord
  2
Standard
 70
     0
 40
0.0
 41
1.0
 50
0.0
 71
     0
 42
0.2
  3
txt
  4

  0
STYLE
  5
59
330
3
100
AcDbSymbolTableRecord
100
AcDbTextStyleTableRecord
  2
Annotative
 70
     0
 40
0.0
 41
1.0
 50
0.0
 71
     0
 42
0.2
  3
txt
  4

1001
AcadAnnotative
1000
AnnotativeData
1002
{
1070
     1
1070
     1
1002
}
  0
STYLE
  5
76
330
3
100
AcDbSymbolTableRecord
100
AcDbTextStyleTableRecord
  2
KICAD
 70
     0
 40
0.0
 41
1.0
 50
0.0
 71
     0
 42
1.0
  3
isocp.shx
  4

  0
STYLE
  5
77
330
3
100
AcDbSymbolTableRecord
100
AcDbTextStyleTableRecord
  2
KICADB
 70
     0
 40
0.0
 41
1.0
 50
0.0
 71
     0
 42
1.0
  3
isocp.shx
  4

  0
STYLE
  5
78
330
3
100
AcDbSymbolTableRecord
100
AcDbTextStyleTableRecord
  2
KICADI
 70
     0
 40
0.0
 41
1.0
 50
15.0
 71
     0
 42
1.0
  3
isocp.shx
  4

  0
STYLE
  5
79
330
3
100
AcDbSymbolTableRecord
100
AcDbTextStyleTableRecord
  2
KICADBI
 70
     0
 40
0.0
 41
1.0
 50
15.0
 71
     0
 42
1.0
  3
isocp.shx
  4

  0
ENDTAB
  0
TABLE
  2
VIEW
  5
6
330
0
100
AcDbSymbolTable
 70
     0
  0
ENDTAB
  0
TABLE
  2
UCS
  5
7
330
0
100
AcDbSymbolTable
 70
     0
  0
ENDTAB
  0
TABLE
  2
APPID
  5
9
330
0
100
AcDbSymbolTable
 70
     7
  0
APPID
  5
56
330
9
100
AcDbSymbolTableRecord
100
AcDbRegAppTableRecord
  2
ACAD
 70
     0
  0
APPID
  5
5D
330
9
100
AcDbSymbolTableRecord
100
AcDbRegAppTableRecord
  2
AcadAnnotative
 70
     0
  0
APPID
  5
2F2
330
9
100
AcDbSymbolTableRecord
100
AcDbRegAppTableRecord
  2
ACAD_NAV_VCDISPLAY
 70
     0
  0
APPID
  5
425
330
9
100
AcDbSymbolTableRecord
100
AcDbRegAppTableRecord
  2
ACAD_EXEMPT_FROM_CAD_STANDARDS
 70
     0
  0
APPID
  5
47C
330
9
100
AcDbSymbolTableRecord
100
AcDbRegAppTableRecord
  2
ACAD_DSTYLE_DIMINSPECT
 70
     0
  0
APPID
  5
47D
330
9
100
AcDbSymbolTableRecord
100
AcDbRegAppTableRecord
  2
ACAD_DSTYLE_DIMJAG_POSITION
 70
     0
  0
APPID
  5
485
330
9
100
AcDbSymbolTableRecord
100
AcDbRegAppTableRecord
  2
AcadAnnoMonitorAlertIconDisabled
 70
     0
  0
ENDTAB
  0
TABLE
  2
DIMSTYLE
  5
A
330
0
100
AcDbSymbolTable
 70
     3
100
AcDbDimStyleTable
 71
     1
340
57
  0
DIMSTYLE
105
57
330
A
100
AcDbSymbolTableRecord
100
AcDbDimStyleTableRecord
  2
Standard
 70
     0
340
55
  0
DIMSTYLE
105
58
330
A
100
AcDbSymbolTableRecord
100
AcDbDimStyleTableRecord
  2
Annotative
 70
     0
340
55
1001
AcadAnnotative
1000
AnnotativeData
1002
{
1070
     1
1070
     1
1002
}
  0
ENDTAB
  0
TABLE
  2
BLOCK_RECORD
  5
1
330
0
100
AcDbSymbolTable
 70
     4
  0
BLOCK_RECORD
  5
6F
102
{ACAD_XDICTIONARY
360
480
102
}
330
1
100
AcDbSymbolTableRecord
100
AcDbBlockTableRecord
  2
*Model_Space
340
72
 70
     0
280
     1
281
     0
  0
BLOCK_RECORD
  5
6B
330
1
100
AcDbSymbolTableRecord
100
AcDbBlockTableRecord
  2
*Paper_Space
340
6E
 70
     0
280
     1
281
     0
  0
BLOCK_RECORD
  5
352
330
1
100
AcDbSymbolTableRecord
100
AcDbBlockTableRecord
  2
A$C1B1652EF
340
0
 70
     0
280
     1
281
     0
  0
BLOCK_RECORD
  5
476
330
1
100
AcDbSymbolTableRecord
100
AcDbBlockTableRecord
  2
_ClosedBlank
340
0
 70
     0
280
     1
281
     0
  0
ENDTAB
  0
ENDSEC
  0
SECTION
  2
BLOCKS
  0
BLOCK
  5
70
330
6F
100
AcDbEntity
  8
0
100
AcDbBlockBegin
  2
*Model_Space
 70
     0
 10
0.0
 20
0.0
 30
0.0
  3
*Model_Space
  1

  0
ENDBLK
  5
71
330
6F
100
AcDbEntity
  8
0
100
AcDbBlockEnd
  0
BLOCK
  5
6C
330
6B
100
AcDbEntity
 67
     1
  8
0
100
AcDbBlockBegin
  2
*Paper_Space
 70
     0
 10
0.0
 20
0.0
 30
0.0
  3
*Paper_Space
  1

  0
ENDBLK
  5
6D
330
6B
100
AcDbEntity
 67
     1
  8
0
100
AcDbBlockEnd
  0
BLOCK
  5
354
330
352
100
AcDbEntity
  8
0
100
AcDbBlockBegin
  2
A$C1B1652EF
 70
     0
 10
0.0
 20
0.0
 30
0.0
  3
A$C1B1652EF
  1

  0
ARC
  5
353
330
352
100
AcDbEntity
  8
BLACK
100
AcDbCircle
 10
0.9999941246341563
 20
0.9999985083502023
 30
0.0
 40
1.0
100
AcDbArc
 50
0.0
 51
90.0
  0
ENDBLK
  5
355
330
352
100
AcDbEntity
  8
0
100
AcDbBlockEnd
  0
BLOCK
  5
47A
330
476
100
AcDbEntity
  8
0
100
AcDbBlockBegin
  2
_ClosedBlank
 70
     0
 10
0.0
 20
0.0
 30
0.0
  3
_ClosedBlank
  1

  0
LINE
  5
477
330
476
100
AcDbEntity
  8
0
  6
ByBlock
 62
     0
370
    -2
100
AcDbLine
 10
-1.0
 20
0.1666666666666666
 30
0.0
 11
0.0
 21
0.0
 31
0.0
  0
LINE
  5
478
330
476
100
AcDbEntity
  8
0
  6
ByBlock
 62
     0
370
    -2
100
AcDbLine
 10
0.0
 20
0.0
 30
0.0
 11
-1.0
 21
-0.1666666666666666
 31
0.0
  0
LINE
  5
479
330
476
100
AcDbEntity
  8
0
  6
ByBlock
 62
     0
370
    -2
100
AcDbLine
 10
-1.0
 20
0.1666666666666666
 30
0.0
 11
-1.0
 21
-0.1666666666666666
 31
0.0
  0
ENDBLK
  5
47B
330
476
100
AcDbEntity
  8
0
100
AcDbBlockEnd
  0
ENDSEC
  0
SECTION
  2
ENTITIES
  0
LINE
  5
7E
330
6F
100
AcDbEntity
  8
BLACK
  6
Continuous
100
AcDbLine
 10
28.9
 20
-247.4
 30
0.0
 11
23.5
 21
-247.4
 31
0.0
  0
LINE
  5
7F
330
6F
100
AcDbEntity
  8
BLACK
  6
Continuous
100
AcDbLine
 10
59.5
 20
-247.4
 30
0.0
 11
54.1
 21
-247.4
 31
0.0
  0
CIRCLE
  5
86
330
6F
100
AcDbEntity
  8
BLACK
100
AcDbCircle
 10
44.1
 20
-392.2
 30
0.0
 40
1.0
  0
CIRCLE
  5
87
330
6F
100
AcDbEntity
  8
BLACK
100
AcDbCircle
 10
56.1
 20
-380.2
 30
0.0
 40
1.0
  0
CIRCLE
  5
88
330
6F
100
AcDbEntity
  8
BLACK
100
AcDbCircle
 10
38.1
 20
-368.2
 30
0.0
 40
1.0
  0
CIRCLE
  5
89
330
6F
100
AcDbEntity
  8
BLACK
100
AcDbCircle
 10
44.1
 20
-386.2
 30
0.0
 40
1.0
  0
CIRCLE
  5
8A
330
6F
100
AcDbEntity
  8
BLACK
100
AcDbCircle
 10
32.1
 20
-380.2
 30
0.0
 40
1.0
  0
CIRCLE
  5
8B
330
6F
100
AcDbEntity
  8
BLACK
100
AcDbCircle
 10
56.1
 20
-386.2
 30
0.0
 40
1.0
  0
CIRCLE
  5
8C
330
6F
100
AcDbEntity
  8
BLACK
100
AcDbCircle
 10
62.1
 20
-380.2
 30
0.0
 40
1.0
  0
CIRCLE
  5
8D
330
6F
100
AcDbEntity
  8
BLACK
100
AcDbCircle
 10
50.1
 20
-368.2
 30
0.0
 40
1.0
  0
CIRCLE
  5
8E
330
6F
100
AcDbEntity
  8
BLACK
100
AcDbCircle
 10
56.1
 20
-368.2
 30
0.0
 40
1.0
  0
CIRCLE
  5
8F
330
6F
100
AcDbEntity
  8
BLACK
100
AcDbCircle
 10
32.1
 20
-374.2
 30
0.0
 40
1.0
  0
CIRCLE
  5
90
330
6F
100
AcDbEntity
  8
BLACK
100
AcDbCircle
 10
38.1
 20
-380.2
 30
0.0
 40
1.0
  0
CIRCLE
  5
91
330
6F
100
AcDbEntity
  8
BLACK
100
AcDbCircle
 10
50.1
 20
-386.2
 30
0.0
 40
1.0
  0
CIRCLE
  5
92
330
6F
100
AcDbEntity
  8
BLACK
100
AcDbCircle
 10
56.1
 20
-374.2
 30
0.0
 40
1.0
  0
CIRCLE
  5
93
330
6F
100
AcDbEntity
  8
BLACK
100
AcDbCircle
 10
50.1
 20
-392.2
 30
0.0
 40
1.0
  0
CIRCLE
  5
94
330
6F
100
AcDbEntity
  8
BLACK
100
AcDbCircle
 10
44.1
 20
-380.2
 30
0.0
 40
1.0
  0
CIRCLE
  5
95
330
6F
100
AcDbEntity
  8
BLACK
100
AcDbCircle
 10
50.1
 20
-380.2
 30
0.0
 40
1.0
  0
CIRCLE
  5
96
330
6F
100
AcDbEntity
  8
BLACK
100
AcDbCircle
 10
50.1
 20
-374.2
 30
0.0
 40
1.0
  0
CIRCLE
  5
97
330
6F
100
AcDbEntity
  8
BLACK
100
AcDbCircle
 10
44.1
 20
-374.2
 30
0.0
 40
1.0
  0
CIRCLE
  5
98
330
6F
100
AcDbEntity
  8
BLACK
100
AcDbCircle
 10
38.1
 20
-386.2
 30
0.0
 40
1.0
  0
CIRCLE
  5
99
330
6F
100
AcDbEntity
  8
BLACK
100
AcDbCircle
 10
62.1
 20
-374.2
 30
0.0
 40
1.0
  0
CIRCLE
  5
9A
330
6F
100
AcDbEntity
  8
BLACK
100
AcDbCircle
 10
44.1
 20
-368.2
 30
0.0
 40
1.0
  0
CIRCLE
  5
9B
330
6F
100
AcDbEntity
  8
BLACK
100
AcDbCircle
 10
38.1
 20
-374.2
 30
0.0
 40
1.0
  0
CIRCLE
  5
9C
330
6F
100
AcDbEntity
  8
BLACK
100
AcDbCircle
 10
44.1
 20
-362.2
 30
0.0
 40
1.0
  0
CIRCLE
  5
9D
330
6F
100
AcDbEntity
  8
BLACK
100
AcDbCircle
 10
50.1
 20
-362.2
 30
0.0
 40
1.0
  0
LINE
  5
B6
330
6F
100
AcDbEntity
  8
BLACK
  6
Continuous
100
AcDbLine
 10
41.5
 20
-264.9
 30
0.0
 11
41.5
 21
-259.5
 31
0.0
  0
LINE
  5
B7
330
6F
100
AcDbEntity
  8
BLACK
  6
Continuous
100
AcDbLine
 10
41.5
 20
-228.9
 30
0.0
 11
41.5
 21
-234.275
 31
0.0
  0
ARC
  5
B8
330
6F
100
AcDbEntity
  8
BLACK
100
AcDbCircle
 10
41.5
 20
-246.9
 30
0.0
 40
12.6246
100
AcDbArc
 50
90.0
 51
270.0
  0
ARC
  5
B9
330
6F
100
AcDbEntity
  8
BLACK
100
AcDbCircle
 10
41.5
 20
-246.9
 30
0.0
 40
12.6246
100
AcDbArc
 50
270.0
 51
90.0
  0
CIRCLE
  5
BA
330
6F
100
AcDbEntity
  8
BLACK
100
AcDbCircle
 10
41.5
 20
-246.9
 30
0.0
 40
12.6246
  0
ARC
  5
BB
330
6F
100
AcDbEntity
  8
BLACK
100
AcDbCircle
 10
41.5
 20
-246.9
 30
0.0
 40
18.0001
100
AcDbArc
 50
90.0
 51
270.0
  0
ARC
  5
BC
330
6F
100
AcDbEntity
  8
BLACK
100
AcDbCircle
 10
41.5
 20
-246.9
 30
0.0
 40
18.0001
100
AcDbArc
 50
270.0
 51
90.0
  0
LINE
  5
BD
330
6F
100
AcDbEntity
  8
BLACK
  6
Continuous
100
AcDbLine
 10
41.5
 20
-267.9
 30
0.0
 11
41.5
 21
-264.9
 31
0.0
  0
LINE
  5
BE
330
6F
100
AcDbEntity
  8
BLACK
  6
Continuous
100
AcDbLine
 10
41.5
 20
-225.9
 30
0.0
 11
41.5
 21
-228.9
 31
0.0
  0
ARC
  5
BF
330
6F
100
AcDbEntity
  8
BLACK
100
AcDbCircle
 10
41.5
 20
-246.9
 30
0.0
 40
21.0
100
AcDbArc
 50
270.0
 51
90.0
  0
ARC
  5
C0
330
6F
100
AcDbEntity
  8
BLACK
100
AcDbCircle
 10
41.5
 20
-246.9
 30
0.0
 40
21.0
100
AcDbArc
 50
90.0
 51
270.0
  0
LINE
  5
C1
330
6F
100
AcDbEntity
  8
BLACK
  6
Continuous
100
AcDbLine
 10
32.55
 20
-326.05
 30
0.0
 11
32.55
 21
-329.55
 31
0.0
  0
ARC
  5
C2
330
6F
100
AcDbEntity
  8
BLACK
100
AcDbCircle
 10
35.3
 20
-327.8
 30
0.0
 40
3.259599999999998
100
AcDbArc
 50
212.471
 51
147.529
  0
LINE
  5
C3
330
6F
100
AcDbEntity
  8
BLACK
  6
Continuous
100
AcDbLine
 10
32.55
 20
-309.55
 30
0.0
 11
32.55
 21
-313.05
 31
0.0
  0
ARC
  5
C4
330
6F
100
AcDbEntity
  8
BLACK
100
AcDbCircle
 10
35.3
 20
-311.3
 30
0.0
 40
3.259599999999998
100
AcDbArc
 50
212.471
 51
147.529
  0
CIRCLE
  5
C5
330
6F
100
AcDbEntity
  8
BLACK
100
AcDbCircle
 10
252.8
 20
-309.3
 30
0.0
 40
1.581139999999999
  0
CIRCLE
  5
C6
330
6F
100
AcDbEntity
  8
BLACK
100
AcDbCircle
 10
176.3
 20
-309.3
 30
0.0
 40
1.581139999999999
  0
LINE
  5
C7
330
6F
100
AcDbEntity
  8
BLACK
  6
Continuous
100
AcDbLine
 10
258.3
 20
-291.3
 30
0.0
 11
238.3
 21
-291.3
 31
0.0
  0
LINE
  5
C8
330
6F
100
AcDbEntity
  8
BLACK
  6
Continuous
100
AcDbLine
 10
258.3
 20
-294.3
 30
0.0
 11
238.3
 21
-294.3
 31
0.0
  0
ARC
  5
C9
330
6F
100
AcDbEntity
  8
BLACK
100
AcDbCircle
 10
168.3
 20
-292.3
 30
0.0
 40
1.0
100
AcDbArc
 50
0.0
 51
90.0
  0
ARC
  5
CA
330
6F
100
AcDbEntity
  8
BLACK
100
AcDbCircle
 10
193.3
 20
-293.3
 30
0.0
 40
1.0
100
AcDbArc
 50
180.0
 51
270.0
  0
LINE
  5
CB
330
6F
100
AcDbEntity
  8
BLACK
  6
Continuous
100
AcDbLine
 10
213.3
 20
-400.3
 30
0.0
 11
193.3
 21
-400.3
 31
0.0
  0
ARC
  5
CC
330
6F
100
AcDbEntity
  8
BLACK
100
AcDbCircle
 10
193.3
 20
-292.3
 30
0.0
 40
1.0
100
AcDbArc
 50
90.0
 51
180.0
  0
ARC
  5
CD
330
6F
100
AcDbEntity
  8
BLACK
100
AcDbCircle
 10
238.3
 20
-292.3
 30
0.0
 40
1.0
100
AcDbArc
 50
90.0
 51
180.0
  0
LINE
  5
CE
330
6F
100
AcDbEntity
  8
BLACK
  6
Continuous
100
AcDbLine
 10
168.3
 20
-291.3
 30
0.0
 11
148.3
 21
-291.3
 31
0.0
  0
LINE
  5
CF
330
6F
100
AcDbEntity
  8
BLACK
  6
Continuous
100
AcDbLine
 10
168.3
 20
-403.3
 30
0.0
 11
148.3
 21
-403.3
 31
0.0
  0
LINE
  5
D0
330
6F
100
AcDbEntity
  8
BLACK
  6
Continuous
100
AcDbLine
 10
258.3
 20
-400.3
 30
0.0
 11
238.3
 21
-400.3
 31
0.0
  0
LINE
  5
D1
330
6F
100
AcDbEntity
  8
BLACK
  6
Continuous
100
AcDbLine
 10
213.3
 20
-291.3
 30
0.0
 11
193.3
 21
-291.3
 31
0.0
  0
LINE
  5
D2
330
6F
100
AcDbEntity
  8
BLACK
  6
Continuous
100
AcDbLine
 10
213.3
 20
-403.3
 30
0.0
 11
193.3
 21
-403.3
 31
0.0
  0
LINE
  5
D3
330
6F
100
AcDbEntity
  8
BLACK
  6
Continuous
100
AcDbLine
 10
213.3
 20
-291.3
 30
0.0
 11
193.3
 21
-291.3
 31
0.0
  0
LINE
  5
D4
330
6F
100
AcDbEntity
  8
BLACK
  6
Continuous
100
AcDbLine
 10
258.3
 20
-400.3
 30
0.0
 11
238.3
 21
-400.3
 31
0.0
  0
LINE
  5
D5
330
6F
100
AcDbEntity
  8
BLACK
  6
Continuous
100
AcDbLine
 10
123.3
 20
-401.2999999999998
 30
0.0
 11
103.3
 21
-401.2999999999998
 31
0.0
  0
LINE
  5
D6
330
6F
100
AcDbEntity
  8
BLACK
  6
Continuous
100
AcDbLine
 10
213.3
 20
-403.3
 30
0.0
 11
193.3
 21
-403.3
 31
0.0
  0
ARC
  5
D7
330
6F
100
AcDbEntity
  8
BLACK
100
AcDbCircle
 10
148.3
 20
-293.3
 30
0.0
 40
1.0
100
AcDbArc
 50
180.0
 51
270.0
  0
ARC
  5
D8
330
6F
100
AcDbEntity
  8
BLACK
100
AcDbCircle
 10
213.3
 20
-292.3
 30
0.0
 40
1.0
100
AcDbArc
 50
0.0
 51
90.0
  0
LINE
  5
D9
330
6F
100
AcDbEntity
  8
BLACK
  6
Continuous
100
AcDbLine
 10
213.3
 20
-294.3
 30
0.0
 11
193.3
 21
-294.3
 31
0.0
  0
LINE
  5
DA
330
6F
100
AcDbEntity
  8
BLACK
  6
Continuous
100
AcDbLine
 10
213.3
 20
-294.3
 30
0.0
 11
193.3
 21
-294.3
 31
0.0
  0
LINE
  5
DB
330
6F
100
AcDbEntity
  8
BLACK
  6
Continuous
100
AcDbLine
 10
258.3
 20
-403.3
 30
0.0
 11
238.3
 21
-403.3
 31
0.0
  0
LINE
  5
DC
330
6F
100
AcDbEntity
  8
BLACK
  6
Continuous
100
AcDbLine
 10
168.3
 20
-291.3
 30
0.0
 11
148.3
 21
-291.3
 31
0.0
  0
ARC
  5
DD
330
6F
100
AcDbEntity
  8
BLACK
100
AcDbCircle
 10
238.3
 20
-293.3
 30
0.0
 40
1.0
100
AcDbArc
 50
180.0
 51
270.0
  0
LINE
  5
DE
330
6F
100
AcDbEntity
  8
BLACK
  6
Continuous
100
AcDbLine
 10
258.3
 20
-291.3
 30
0.0
 11
238.3
 21
-291.3
 31
0.0
  0
ARC
  5
DF
330
6F
100
AcDbEntity
  8
BLACK
100
AcDbCircle
 10
258.3
 20
-292.3
 30
0.0
 40
1.0
100
AcDbArc
 50
0.0
 51
90.0
  0
LINE
  5
E0
330
6F
100
AcDbEntity
  8
BLACK
  6
Continuous
100
AcDbLine
 10
168.3
 20
-294.3
 30
0.0
 11
148.3
 21
-294.3
 31
0.0
  0
LINE
  5
E1
330
6F
100
AcDbEntity
  8
BLACK
  6
Continuous
100
AcDbLine
 10
10.3
 20
-315.3
 30
0.0
 11
10.3
 21
-335.3
 31
0.0
  0
LINE
  5
E2
330
6F
100
AcDbEntity
  8
BLACK
  6
Continuous
100
AcDbLine
 10
73.3
 20
-169.3
 30
0.0
 11
70.3
 21
-169.3
 31
0.0
  0
LINE
  5
E3
330
6F
100
AcDbEntity
  8
BLACK
  6
Continuous
100
AcDbLine
 10
10.3
 20
-124.3
 30
0.0
 11
10.3
 21
-144.3
 31
0.0
  0
LINE
  5
E4
330
6F
100
AcDbEntity
  8
BLACK
  6
Continuous
100
AcDbLine
 10
13.3
 20
-335.3
 30
0.0
 11
13.3
 21
-360.3
 31
0.0
  0
LINE
  5
E5
330
6F
100
AcDbEntity
  8
BLACK
  6
Continuous
100
AcDbLine
 10
40.14999999999999
 20
-151.95
 30
0.0
 11
40.14999999999999
 21
-162.95
 31
0.0
  0
LINE
  5
E6
330
6F
100
AcDbEntity
  8
BLACK
  6
Continuous
100
AcDbLine
 10
73.3
 20
-335.3
 30
0.0
 11
70.3
 21
-335.3
 31
0.0
  0
LINE
  5
E7
330
6F
100
AcDbEntity
  8
BLACK
  6
Continuous
100
AcDbLine
 10
70.3
 20
-380.3
 30
0.0
 11
73.3
 21
-380.3
 31
0.0
  0
LINE
  5
E8
330
6F
100
AcDbEntity
  8
BLACK
  6
Continuous
100
AcDbLine
 10
13.3
 20
-294.3
 30
0.0
 11
13.3
 21
-315.3
 31
0.0
  0
LINE
  5
E9
330
6F
100
AcDbEntity
  8
BLACK
  6
Continuous
100
AcDbLine
 10
70.3
 20
-315.3
 30
0.0
 11
73.3
 21
-315.3
 31
0.0
  0
LINE
  5
EA
330
6F
100
AcDbEntity
  8
BLACK
  6
Continuous
100
AcDbLine
 10
70.3
 20
-360.3
 30
0.0
 11
70.3
 21
-335.3
 31
0.0
  0
LINE
  5
EB
330
6F
100
AcDbEntity
  8
BLACK
  6
Continuous
100
AcDbLine
 10
10.3
 20
-360.3
 30
0.0
 11
13.3
 21
-360.3
 31
0.0
  0
LINE
  5
EC
330
6F
100
AcDbEntity
  8
BLACK
  6
Continuous
100
AcDbLine
 10
53.65
 20
-138.45
 30
0.0
 11
64.65
 21
-138.45
 31
0.0
  0
LINE
  5
EE
330
6F
100
AcDbEntity
  8
BLACK
  6
Continuous
100
AcDbLine
 10
70.3
 20
-400.3
 30
0.0
 11
70.3
 21
-380.3
 31
0.0
  0
LINE
  5
EF
330
6F
100
AcDbEntity
  8
BLACK
  6
Continuous
100
AcDbLine
 10
13.3
 20
-400.3
 30
0.0
 11
13.3
 21
-380.3
 31
0.0
  0
LINE
  5
F1
330
6F
100
AcDbEntity
  8
BLACK
  6
Continuous
100
AcDbLine
 10
10.3
 20
-335.3
 30
0.0
 11
13.3
 21
-335.3
 31
0.0
  0
LINE
  5
F2
330
6F
100
AcDbEntity
  8
BLACK
  6
Continuous
100
AcDbLine
 10
73.3
 20
-315.3
 30
0.0
 11
73.3
 21
-335.3
 31
0.0
  0
LINE
  5
F3
330
6F
100
AcDbEntity
  8
BLACK
  6
Continuous
100
AcDbLine
 10
53.65
 20
-141.45
 30
0.0
 11
64.65
 21
-141.45
 31
0.0
  0
LINE
  5
F4
330
6F
100
AcDbEntity
  8
BLACK
  6
Continuous
100
AcDbLine
 10
73.3
 20
-360.3
 30
0.0
 11
70.3
 21
-360.3
 31
0.0
  0
ARC
  5
F5
330
6F
100
AcDbEntity
  8
BLACK
100
AcDbCircle
 10
41.65
 20
-139.95
 30
0.0
 40
23.0489
100
AcDbArc
 50
183.731
 51
266.2686
  0
LINE
  5
F6
330
6F
100
AcDbEntity
  8
BLACK
  6
Continuous
100
AcDbLine
 10
86.3
 20
-35.3
 30
0.0
 11
82.3
 21
-35.3
 31
0.0
  0
LINE
  5
F7
330
6F
100
AcDbEntity
  8
BLACK
  6
Continuous
100
AcDbLine
 10
10.3
 20
-169.3
 30
0.0
 11
13.3
 21
-169.3
 31
0.0
  0
LINE
  5
F9
330
6F
100
AcDbEntity
  8
BLACK
  6
Continuous
100
AcDbLine
 10
13.3
 20
-380.3
 30
0.0
 11
10.3
 21
-380.3
 31
0.0
  0
LINE
  5
FA
330
6F
100
AcDbEntity
  8
BLACK
  6
Continuous
100
AcDbLine
 10
43.15
 20
-127.95
 30
0.0
 11
43.15
 21
-116.95
 31
0.0
  0
LINE
  5
FB
330
6F
100
AcDbEntity
  8
BLACK
  6
Continuous
100
AcDbLine
 10
29.65
 20
-138.45
 30
0.0
 11
18.65
 21
-138.45
 31
0.0
  0
CIRCLE
  5
FC
330
6F
100
AcDbEntity
  8
BLACK
100
AcDbCircle
 10
61.65
 20
-119.95
 30
0.0
 40
2.0
  0
CIRCLE
  5
FD
330
6F
100
AcDbEntity
  8
BLACK
100
AcDbCircle
 10
21.65
 20
-119.95
 30
0.0
 40
2.0
  0
LINE
  5
FF
330
6F
100
AcDbEntity
  8
BLACK
  6
Continuous
100
AcDbLine
 10
10.3
 20
-380.3
 30
0.0
 11
10.3
 21
-360.3
 31
0.0
  0
LINE
  5
100
330
6F
100
AcDbEntity
  8
BLACK
  6
Continuous
100
AcDbLine
 10
10.3
 20
-189.3
 30
0.0
 11
10.3
 21
-169.3
 31
0.0
  0
LINE
  5
101
330
6F
100
AcDbEntity
  8
BLACK
  6
Continuous
100
AcDbLine
 10
73.3
 20
-380.3
 30
0.0
 11
73.3
 21
-360.3
 31
0.0
  0
LINE
  5
102
330
6F
100
AcDbEntity
  8
BLACK
  6
Continuous
100
AcDbLine
 10
13.3
 20
-315.3
 30
0.0
 11
10.3
 21
-315.3
 31
0.0
  0
LINE
  5
103
330
6F
100
AcDbEntity
  8
BLACK
  6
Continuous
100
AcDbLine
 10
43.15
 20
-151.95
 30
0.0
 11
43.15
 21
-162.95
 31
0.0
  0
LINE
  5
104
330
6F
100
AcDbEntity
  8
BLACK
  6
Continuous
100
AcDbLine
 10
70.3
 20
-294.3
 30
0.0
 11
70.3
 21
-315.3
 31
0.0
  0
LINE
  5
105
330
6F
100
AcDbEntity
  8
BLACK
  6
Continuous
100
AcDbLine
 10
123.3
 20
-34.3
 30
0.0
 11
123.3
 21
-32.3
 31
0.0
  0
LINE
  5
106
330
6F
100
AcDbEntity
  8
BLACK
  6
Continuous
100
AcDbLine
 10
191.2100010970224
 20
-83.25694385261686
 30
0.0
 11
205.21
 21
-83.25694385261686
 31
0.0
  0
LINE
  5
108
330
6F
100
AcDbEntity
  8
BLACK
  6
Continuous
100
AcDbLine
 10
123.3
 20
-95.29999999999999
 30
0.0
 11
103.3
 21
-95.29999999999999
 31
0.0
  0
LINE
  5
10A
330
6F
100
AcDbEntity
  8
BLACK
  6
Continuous
100
AcDbLine
 10
140.21
 20
-83.25694385261686
 30
0.0
 11
140.21
 21
-72.25694385261684
 31
0.0
  0
LINE
  5
10B
330
6F
100
AcDbEntity
  8
BLACK
  6
Continuous
100
AcDbLine
 10
231.71
 20
-82.25694385261686
 30
0.0
 11
231.71
 21
-69.25694385261684
 31
0.0
  0
LINE
  5
10C
330
6F
100
AcDbEntity
  8
BLACK
  6
Continuous
100
AcDbLine
 10
168.3
 20
-32.3
 30
0.0
 11
148.3
 21
-32.3
 31
0.0
  0
LINE
  5
10D
330
6F
100
AcDbEntity
  8
BLACK
  6
Continuous
100
AcDbLine
 10
248.21
 20
-69.25694385261684
 30
0.0
 11
248.21
 21
-82.25694385261686
 31
0.0
  0
LINE
  5
10E
330
6F
100
AcDbEntity
  8
BLACK
  6
Continuous
100
AcDbLine
 10
168.3
 20
-32.3
 30
0.0
 11
168.3
 21
-35.3
 31
0.0
  0
LINE
  5
10F
330
6F
100
AcDbEntity
  8
BLACK
  6
Continuous
100
AcDbLine
 10
229.71
 20
-85.33774647198816
 30
0.0
 11
200.21
 21
-85.33774647198816
 31
0.0
  0
LINE
  5
110
330
6F
100
AcDbEntity
  8
BLACK
  6
Continuous
100
AcDbLine
 10
103.3
 20
-35.3
 30
0.0
 11
103.3
 21
-32.3
 31
0.0
  0
LINE
  5
111
330
6F
100
AcDbEntity
  8
BLACK
  6
Continuous
100
AcDbLine
 10
213.3
 20
-32.3
 30
0.0
 11
193.3
 21
-32.3
 31
0.0
  0
LINE
  5
112
330
6F
100
AcDbEntity
  8
BLACK
  6
Continuous
100
AcDbLine
 10
168.3
 20
-34.3
 30
0.0
 11
168.3
 21
-32.3
 31
0.0
  0
LINE
  5
113
330
6F
100
AcDbEntity
  8
BLACK
  6
Continuous
100
AcDbLine
 10
258.3
 20
-32.3
 30
0.0
 11
258.3
 21
-35.3
 31
0.0
  0
LINE
  5
114
330
6F
100
AcDbEntity
  8
BLACK
  6
Continuous
100
AcDbLine
 10
258.3
 20
-32.3
 30
0.0
 11
238.3
 21
-32.3
 31
0.0
  0
LINE
  5
115
330
6F
100
AcDbEntity
  8
BLACK
  6
Continuous
100
AcDbLine
 10
123.3
 20
-92.3
 30
0.0
 11
123.3
 21
-95.29999999999999
 31
0.0
  0
LINE
  5
116
330
6F
100
AcDbEntity
  8
BLACK
  6
Continuous
100
AcDbLine
 10
213.3
 20
-34.3
 30
0.0
 11
213.3
 21
-32.3
 31
0.0
  0
LINE
  5
117
330
6F
100
AcDbEntity
  8
BLACK
  6
Continuous
100
AcDbLine
 10
148.3
 20
-32.3
 30
0.0
 11
148.3
 21
-35.3
 31
0.0
  0
LINE
  5
118
330
6F
100
AcDbEntity
  8
BLACK
  6
Continuous
100
AcDbLine
 10
123.3
 20
-32.3
 30
0.0
 11
123.3
 21
-35.3
 31
0.0
  0
LINE
  5
119
330
6F
100
AcDbEntity
  8
BLACK
  6
Continuous
100
AcDbLine
 10
193.3
 20
-95.29999999999999
 30
0.0
 11
193.3
 21
-92.3
 31
0.0
  0
LINE
  5
11A
330
6F
100
AcDbEntity
  8
BLACK
  6
Continuous
100
AcDbLine
 10
238.3
 20
-32.3
 30
0.0
 11
238.3
 21
-35.3
 31
0.0
  0
LINE
  5
11B
330
6F
100
AcDbEntity
  8
BLACK
  6
Continuous
100
AcDbLine
 10
123.3
 20
-94.29999999999999
 30
0.0
 11
123.3
 21
-92.3
 31
0.0
  0
LINE
  5
11C
330
6F
100
AcDbEntity
  8
BLACK
  6
Continuous
100
AcDbLine
 10
193.3
 20
-92.3
 30
0.0
 11
193.3
 21
-94.29999999999999
 31
0.0
  0
LINE
  5
11D
330
6F
100
AcDbEntity
  8
BLACK
  6
Continuous
100
AcDbLine
 10
258.3
 20
-92.3
 30
0.0
 11
258.3
 21
-95.29999999999999
 31
0.0
  0
LINE
  5
11E
330
6F
100
AcDbEntity
  8
BLACK
  6
Continuous
100
AcDbLine
 10
258.3
 20
-34.3
 30
0.0
 11
258.3
 21
-32.3
 31
0.0
  0
LINE
  5
11F
330
6F
100
AcDbEntity
  8
BLACK
  6
Continuous
100
AcDbLine
 10
103.3
 20
-32.3
 30
0.0
 11
103.3
 21
-34.3
 31
0.0
  0
LINE
  5
120
330
6F
100
AcDbEntity
  8
BLACK
  6
Continuous
100
AcDbLine
 10
238.3
 20
-95.29999999999999
 30
0.0
 11
238.3
 21
-92.3
 31
0.0
  0
LINE
  5
121
330
6F
100
AcDbEntity
  8
BLACK
  6
Continuous
100
AcDbLine
 10
232.71
 20
-83.25694385261686
 30
0.0
 11
247.21
 21
-83.25694385261686
 31
0.0
  0
LINE
  5
122
330
6F
100
AcDbEntity
  8
BLACK
  6
Continuous
100
AcDbLine
 10
213.3
 20
-32.3
 30
0.0
 11
213.3
 21
-35.3
 31
0.0
  0
LINE
  5
123
330
6F
100
AcDbEntity
  8
BLACK
  6
Continuous
100
AcDbLine
 10
258.3
 20
-95.29999999999999
 30
0.0
 11
238.3
 21
-95.29999999999999
 31
0.0
  0
LINE
  5
124
330
6F
100
AcDbEntity
  8
BLACK
  6
Continuous
100
AcDbLine
 10
191.21
 20
-66.75694385261685
 30
0.0
 11
205.21
 21
-66.75694385261685
 31
0.0
  0
LINE
  5
125
330
6F
100
AcDbEntity
  8
BLACK
  6
Continuous
100
AcDbLine
 10
148.3
 20
-34.3
 30
0.0
 11
148.3
 21
-32.3
 31
0.0
  0
LINE
  5
126
330
6F
100
AcDbEntity
  8
BLACK
  6
Continuous
100
AcDbLine
 10
213.3
 20
-95.29999999999999
 30
0.0
 11
193.3
 21
-95.29999999999999
 31
0.0
  0
LINE
  5
127
330
6F
100
AcDbEntity
  8
BLACK
  6
Continuous
100
AcDbLine
 10
213.3
 20
-94.29999999999999
 30
0.0
 11
213.3
 21
-92.3
 31
0.0
  0
LINE
  5
128
330
6F
100
AcDbEntity
  8
BLACK
  6
Continuous
100
AcDbLine
 10
213.3
 20
-92.3
 30
0.0
 11
213.3
 21
-95.29999999999999
 31
0.0
  0
LINE
  5
129
330
6F
100
AcDbEntity
  8
BLACK
  6
Continuous
100
AcDbLine
 10
123.3
 20
-32.3
 30
0.0
 11
103.3
 21
-32.3
 31
0.0
  0
LINE
  5
12A
330
6F
100
AcDbEntity
  8
BLACK
  6
Continuous
100
AcDbLine
 10
103.3
 20
-95.29999999999999
 30
0.0
 11
103.3
 21
-92.3
 31
0.0
  0
LINE
  5
12B
330
6F
100
AcDbEntity
  8
BLACK
  6
Continuous
100
AcDbLine
 10
103.3
 20
-92.3
 30
0.0
 11
103.3
 21
-94.29999999999999
 31
0.0
  0
LINE
  5
12C
330
6F
100
AcDbEntity
  8
BLACK
  6
Continuous
100
AcDbLine
 10
168.3
 20
-92.3
 30
0.0
 11
168.3
 21
-95.29999999999999
 31
0.0
  0
LINE
  5
12D
330
6F
100
AcDbEntity
  8
BLACK
  6
Continuous
100
AcDbLine
 10
232.71
 20
-68.48910945349762
 30
0.0
 11
247.21
 21
-68.48910945349762
 31
0.0
  0
LINE
  5
12E
330
6F
100
AcDbEntity
  8
BLACK
  6
Continuous
100
AcDbLine
 10
145.21
 20
-76.75694385261684
 30
0.0
 11
158.21
 21
-76.75694385261684
 31
0.0
  0
LINE
  5
12F
330
6F
100
AcDbEntity
  8
BLACK
  6
Continuous
100
AcDbLine
 10
206.21
 20
-67.75694385261686
 30
0.0
 11
206.21
 21
-82.25694385261686
 31
0.0
  0
LINE
  5
131
330
6F
100
AcDbEntity
  8
BLACK
  6
Continuous
100
AcDbLine
 10
131.21
 20
-83.25694385261686
 30
0.0
 11
140.21
 21
-83.25694385261686
 31
0.0
  0
LINE
  5
132
330
6F
100
AcDbEntity
  8
BLACK
  6
Continuous
100
AcDbLine
 10
140.21
 20
-72.25694385261684
 30
0.0
 11
131.21
 21
-72.25694385261684
 31
0.0
  0
LINE
  5
133
330
6F
100
AcDbEntity
  8
BLACK
  6
Continuous
100
AcDbLine
 10
193.3
 20
-34.3
 30
0.0
 11
193.3
 21
-32.3
 31
0.0
  0
LINE
  5
135
330
6F
100
AcDbEntity
  8
BLACK
  6
Continuous
100
AcDbLine
 10
200.21
 20
-88.33774647198817
 30
0.0
 11
229.71
 21
-88.33774647198817
 31
0.0
  0
LINE
  5
136
330
6F
100
AcDbEntity
  8
BLACK
  6
Continuous
100
AcDbLine
 10
168.3
 20
-94.29999999999999
 30
0.0
 11
168.3
 21
-92.3
 31
0.0
  0
LINE
  5
137
330
6F
100
AcDbEntity
  8
BLACK
  6
Continuous
100
AcDbLine
 10
168.3
 20
-95.29999999999999
 30
0.0
 11
148.3
 21
-95.29999999999999
 31
0.0
  0
LINE
  5
138
330
6F
100
AcDbEntity
  8
BLACK
  6
Continuous
100
AcDbLine
 10
148.3
 20
-95.29999999999999
 30
0.0
 11
148.3
 21
-92.3
 31
0.0
  0
LINE
  5
139
330
6F
100
AcDbEntity
  8
BLACK
  6
Continuous
100
AcDbLine
 10
168.3
 20
-35.3
 30
0.0
 11
193.3
 21
-35.3
 31
0.0
  0
LINE
  5
13A
330
6F
100
AcDbEntity
  8
BLACK
  6
Continuous
100
AcDbLine
 10
193.3
 20
-32.3
 30
0.0
 11
193.3
 21
-35.3
 31
0.0
  0
LINE
  5
13B
330
6F
100
AcDbEntity
  8
BLACK
  6
Continuous
100
AcDbLine
 10
238.3
 20
-34.3
 30
0.0
 11
238.3
 21
-32.3
 31
0.0
  0
LINE
  5
13C
330
6F
100
AcDbEntity
  8
BLACK
  6
Continuous
100
AcDbLine
 10
193.3
 20
-92.3
 30
0.0
 11
168.3
 21
-92.3
 31
0.0
  0
LINE
  5
13D
330
6F
100
AcDbEntity
  8
BLACK
  6
Continuous
100
AcDbLine
 10
148.3
 20
-92.3
 30
0.0
 11
148.3
 21
-94.29999999999999
 31
0.0
  0
LINE
  5
13E
330
6F
100
AcDbEntity
  8
BLACK
  6
Continuous
100
AcDbLine
 10
258.3
 20
-35.3
 30
0.0
 11
258.3
 21
-33.3
 31
0.0
  0
ARC
  5
13F
330
6F
100
AcDbEntity
  8
BLACK
100
AcDbCircle
 10
205.21
 20
-82.25694385261686
 30
0.0
 40
1.0
100
AcDbArc
 50
270.0
 51
0.0
  0
LINE
  5
140
330
6F
100
AcDbEntity
  8
BLACK
  6
Continuous
100
AcDbLine
 10
258.3
 20
-92.3
 30
0.0
 11
281.3
 21
-92.3
 31
0.0
  0
ARC
  5
142
330
6F
100
AcDbEntity
  8
BLACK
100
AcDbCircle
 10
232.71
 20
-82.25694385261686
 30
0.0
 40
1.0
100
AcDbArc
 50
180.0
 51
270.0
  0
LINE
  5
143
330
6F
100
AcDbEntity
  8
BLACK
  6
Continuous
100
AcDbLine
 10
82.3
 20
-92.3
 30
0.0
 11
103.3
 21
-92.3
 31
0.0
  0
LINE
  5
145
330
6F
100
AcDbEntity
  8
BLACK
  6
Continuous
100
AcDbLine
 10
148.3
 20
-35.3
 30
0.0
 11
123.3
 21
-35.3
 31
0.0
  0
LINE
  5
146
330
6F
100
AcDbEntity
  8
BLACK
  6
Continuous
100
AcDbLine
 10
213.3
 20
-92.3
 30
0.0
 11
238.3
 21
-92.3
 31
0.0
  0
LINE
  5
147
330
6F
100
AcDbEntity
  8
BLACK
  6
Continuous
100
AcDbLine
 10
144.21
 20
-82.25694385261686
 30
0.0
 11
144.21
 21
-77.75694385261684
 31
0.0
  0
ARC
  5
149
330
6F
100
AcDbEntity
  8
BLACK
100
AcDbCircle
 10
232.71
 20
-69.4891094534976
 30
0.0
 40
1.0
100
AcDbArc
 50
90.0
 51
180.0
  0
ARC
  5
14A
330
6F
100
AcDbEntity
  8
BLACK
100
AcDbCircle
 10
205.21
 20
-67.75694385261686
 30
0.0
 40
1.0
100
AcDbArc
 50
0.0
 51
90.0
  0
ARC
  5
14B
330
6F
100
AcDbEntity
  8
BLACK
100
AcDbCircle
 10
200.21
 20
-86.83774647198816
 30
0.0
 40
1.5
100
AcDbArc
 50
90.0
 51
270.0
  0
ARC
  5
14C
330
6F
100
AcDbEntity
  8
BLACK
100
AcDbCircle
 10
229.71
 20
-86.83774647198816
 30
0.0
 40
1.5
100
AcDbArc
 50
270.0
 51
90.0
  0
LINE
  5
14E
330
6F
100
AcDbEntity
  8
BLACK
  6
Continuous
100
AcDbLine
 10
131.21
 20
-83.25694385261686
 30
0.0
 11
131.21
 21
-72.25694385261684
 31
0.0
  0
ARC
  5
14F
330
6F
100
AcDbEntity
  8
BLACK
100
AcDbCircle
 10
145.21
 20
-82.25694385261686
 30
0.0
 40
1.0
100
AcDbArc
 50
180.0
 51
270.0
  0
ARC
  5
150
330
6F
100
AcDbEntity
  8
BLACK
100
AcDbCircle
 10
145.21
 20
-77.75694385261684
 30
0.0
 40
1.0
100
AcDbArc
 50
90.0
 51
180.0
  0
ARC
  5
152
330
6F
100
AcDbEntity
  8
BLACK
100
AcDbCircle
 10
247.21
 20
-69.4891094534976
 30
0.0
 40
1.0
100
AcDbArc
 50
0.0
 51
90.0
  0
LINE
  5
153
330
6F
100
AcDbEntity
  8
BLACK
  6
Continuous
100
AcDbLine
 10
238.3
 20
-92.3
 30
0.0
 11
238.3
 21
-94.29999999999999
 31
0.0
  0
LINE
  5
154
330
6F
100
AcDbEntity
  8
BLACK
  6
Continuous
100
AcDbLine
 10
213.3
 20
-212.3
 30
0.0
 11
193.3
 21
-212.3
 31
0.0
  0
LINE
  5
155
330
6F
100
AcDbEntity
  8
BLACK
  6
Continuous
100
AcDbLine
 10
258.3
 20
-212.3
 30
0.0
 11
238.3
 21
-212.3
 31
0.0
  0
LINE
  5
156
330
6F
100
AcDbEntity
  8
BLACK
  6
Continuous
100
AcDbLine
 10
258.3
 20
-209.3
 30
0.0
 11
238.3
 21
-209.3
 31
0.0
  0
LINE
  5
157
330
6F
100
AcDbEntity
  8
BLACK
  6
Continuous
100
AcDbLine
 10
192.3
 20
-210.3
 30
0.0
 11
192.3
 21
-211.3
 31
0.0
  0
LINE
  5
158
330
6F
100
AcDbEntity
  8
BLACK
  6
Continuous
100
AcDbLine
 10
213.3
 20
-209.3
 30
0.0
 11
193.3
 21
-209.3
 31
0.0
  0
ARC
  5
159
330
6F
100
AcDbEntity
  8
BLACK
100
AcDbCircle
 10
238.3
 20
-210.3
 30
0.0
 40
1.0
100
AcDbArc
 50
90.0
 51
180.0
  0
LINE
  5
15A
330
6F
100
AcDbEntity
  8
BLACK
  6
Continuous
100
AcDbLine
 10
168.3
 20
-209.3
 30
0.0
 11
148.3
 21
-209.3
 31
0.0
  0
ARC
  5
15B
330
6F
100
AcDbEntity
  8
BLACK
100
AcDbCircle
 10
168.3
 20
-210.3
 30
0.0
 40
1.0
100
AcDbArc
 50
0.0
 51
90.0
  0
LINE
  5
15C
330
6F
100
AcDbEntity
  8
BLACK
  6
Continuous
100
AcDbLine
 10
123.3
 20
-210.3
 30
0.0
 11
103.3
 21
-210.3
 31
0.0
  0
ARC
  5
15D
330
6F
100
AcDbEntity
  8
BLACK
100
AcDbCircle
 10
148.3
 20
-211.3
 30
0.0
 40
1.0
100
AcDbArc
 50
180.0
 51
270.0
  0
LINE
  5
15E
330
6F
100
AcDbEntity
  8
BLACK
  6
Continuous
100
AcDbLine
 10
168.3
 20
-212.3
 30
0.0
 11
148.3
 21
-212.3
 31
0.0
  0
LINE
  5
15F
330
6F
100
AcDbEntity
  8
BLACK
  6
Continuous
100
AcDbLine
 10
168.3
 20
-209.3
 30
0.0
 11
148.3
 21
-209.3
 31
0.0
  0
ARC
  5
160
330
6F
100
AcDbEntity
  8
BLACK
100
AcDbCircle
 10
238.3
 20
-211.3
 30
0.0
 40
1.0
100
AcDbArc
 50
180.0
 51
270.0
  0
ARC
  5
161
330
6F
100
AcDbEntity
  8
BLACK
100
AcDbCircle
 10
193.3
 20
-211.3
 30
0.0
 40
1.0
100
AcDbArc
 50
180.0
 51
270.0
  0
LINE
  5
162
330
6F
100
AcDbEntity
  8
BLACK
  6
Continuous
100
AcDbLine
 10
147.3
 20
-210.3
 30
0.0
 11
147.3
 21
-211.3
 31
0.0
  0
LINE
  5
163
330
6F
100
AcDbEntity
  8
BLACK
  6
Continuous
100
AcDbLine
 10
258.3
 20
-212.3
 30
0.0
 11
238.3
 21
-212.3
 31
0.0
  0
ARC
  5
164
330
6F
100
AcDbEntity
  8
BLACK
100
AcDbCircle
 10
193.3
 20
-210.3
 30
0.0
 40
1.0
100
AcDbArc
 50
90.0
 51
180.0
  0
LINE
  5
165
330
6F
100
AcDbEntity
  8
BLACK
  6
Continuous
100
AcDbLine
 10
258.3
 20
-209.3
 30
0.0
 11
238.3
 21
-209.3
 31
0.0
  0
ARC
  5
166
330
6F
100
AcDbEntity
  8
BLACK
100
AcDbCircle
 10
258.3
 20
-210.3
 30
0.0
 40
1.0
100
AcDbArc
 50
0.0
 51
90.0
  0
LINE
  5
167
330
6F
100
AcDbEntity
  8
BLACK
  6
Continuous
100
AcDbLine
 10
258.3
 20
-212.3
 30
0.0
 11
238.3
 21
-212.3
 31
0.0
  0
LINE
  5
168
330
6F
100
AcDbEntity
  8
BLACK
  6
Continuous
100
AcDbLine
 10
259.3
 20
-210.3
 30
0.0
 11
259.3
 21
-211.3
 31
0.0
  0
LINE
  5
169
330
6F
100
AcDbEntity
  8
BLACK
  6
Continuous
100
AcDbLine
 10
213.3
 20
-209.3
 30
0.0
 11
193.3
 21
-209.3
 31
0.0
  0
LINE
  5
16A
330
6F
100
AcDbEntity
  8
BLACK
  6
Continuous
100
AcDbLine
 10
168.3
 20
-209.3
 30
0.0
 11
148.3
 21
-209.3
 31
0.0
  0
LINE
  5
16B
330
6F
100
AcDbEntity
  8
BLACK
  6
Continuous
100
AcDbLine
 10
168.3
 20
-212.3
 30
0.0
 11
148.3
 21
-212.3
 31
0.0
  0
LINE
  5
16C
330
6F
100
AcDbEntity
  8
BLACK
  6
Continuous
100
AcDbLine
 10
213.3
 20
-212.3
 30
0.0
 11
193.3
 21
-212.3
 31
0.0
  0
ARC
  5
16D
330
6F
100
AcDbEntity
  8
BLACK
100
AcDbCircle
 10
168.3
 20
-211.3
 30
0.0
 40
1.0
100
AcDbArc
 50
270.0
 51
0.0
  0
LINE
  5
16E
330
6F
100
AcDbEntity
  8
BLACK
  6
Continuous
100
AcDbLine
 10
214.3
 20
-210.3
 30
0.0
 11
214.3
 21
-211.3
 31
0.0
  0
LINE
  5
16F
330
6F
100
AcDbEntity
  8
BLACK
  6
Continuous
100
AcDbLine
 10
213.3
 20
-209.3
 30
0.0
 11
193.3
 21
-209.3
 31
0.0
  0
ARC
  5
170
330
6F
100
AcDbEntity
  8
BLACK
100
AcDbCircle
 10
148.3
 20
-210.3
 30
0.0
 40
1.0
100
AcDbArc
 50
90.0
 51
180.0
  0
LINE
  5
171
330
6F
100
AcDbEntity
  8
BLACK
  6
Continuous
100
AcDbLine
 10
168.3
 20
-212.3
 30
0.0
 11
148.3
 21
-212.3
 31
0.0
  0
LINE
  5
172
330
6F
100
AcDbEntity
  8
BLACK
  6
Continuous
100
AcDbLine
 10
213.3
 20
-212.3
 30
0.0
 11
193.3
 21
-212.3
 31
0.0
  0
LINE
  5
173
330
6F
100
AcDbEntity
  8
BLACK
  6
Continuous
100
AcDbLine
 10
237.3
 20
-210.3
 30
0.0
 11
237.3
 21
-211.3
 31
0.0
  0
ARC
  5
174
330
6F
100
AcDbEntity
  8
BLACK
100
AcDbCircle
 10
213.3
 20
-210.3
 30
0.0
 40
1.0
100
AcDbArc
 50
0.0
 51
90.0
  0
LINE
  5
175
330
6F
100
AcDbEntity
  8
BLACK
  6
Continuous
100
AcDbLine
 10
79.29999999999998
 20
-144.3
 30
0.0
 11
79.29999999999998
 21
-124.3
 31
0.0
  0
LINE
  5
176
330
6F
100
AcDbEntity
  8
BLACK
  6
Continuous
100
AcDbLine
 10
79.29999999999998
 20
-189.3
 30
0.0
 11
79.29999999999998
 21
-169.3
 31
0.0
  0
LINE
  5
177
330
6F
100
AcDbEntity
  8
BLACK
  6
Continuous
100
AcDbLine
 10
80.29999999999999
 20
-123.3
 30
0.0
 11
81.3
 21
-123.3
 31
0.0
  0
LINE
  5
178
330
6F
100
AcDbEntity
  8
BLACK
  6
Continuous
100
AcDbLine
 10
80.29999999999999
 20
-168.3
 30
0.0
 11
81.3
 21
-168.3
 31
0.0
  0
LINE
  5
179
330
6F
100
AcDbEntity
  8
BLACK
  6
Continuous
100
AcDbLine
 10
281.3
 20
-35.3
 30
0.0
 11
258.3
 21
-35.3
 31
0.0
  0
LINE
  5
17A
330
6F
100
AcDbEntity
  8
BLACK
  6
Continuous
100
AcDbLine
 10
81.3
 20
-145.3
 30
0.0
 11
80.29999999999999
 21
-145.3
 31
0.0
  0
LINE
  5
17B
330
6F
100
AcDbEntity
  8
BLACK
  6
Continuous
100
AcDbLine
 10
238.3
 20
-33.3
 30
0.0
 11
238.3
 21
-35.3
 31
0.0
  0
LINE
  5
17C
330
6F
100
AcDbEntity
  8
BLACK
  6
Continuous
100
AcDbLine
 10
81.3
 20
-190.3
 30
0.0
 11
80.29999999999999
 21
-190.3
 31
0.0
  0
ARC
  5
17D
330
6F
100
AcDbEntity
  8
BLACK
100
AcDbCircle
 10
80.29999999999999
 20
-169.3
 30
0.0
 40
1.0
100
AcDbArc
 50
90.0
 51
180.0
  0
ARC
  5
17E
330
6F
100
AcDbEntity
  8
BLACK
100
AcDbCircle
 10
80.29999999999999
 20
-124.3
 30
0.0
 40
1.0
100
AcDbArc
 50
90.0
 51
180.0
  0
ARC
  5
17F
330
6F
100
AcDbEntity
  8
BLACK
100
AcDbCircle
 10
80.29999999999999
 20
-144.3
 30
0.0
 40
1.0
100
AcDbArc
 50
180.0
 51
270.0
  0
ARC
  5
180
330
6F
100
AcDbEntity
  8
BLACK
100
AcDbCircle
 10
213.3
 20
-211.3
 30
0.0
 40
1.0
100
AcDbArc
 50
270.0
 51
0.0
  0
LINE
  5
181
330
6F
100
AcDbEntity
  8
BLACK
  6
Continuous
100
AcDbLine
 10
169.3
 20
-210.3
 30
0.0
 11
169.3
 21
-211.3
 31
0.0
  0
LINE
  5
182
330
6F
100
AcDbEntity
  8
BLACK
  6
Continuous
100
AcDbLine
 10
123.3
 20
-92.3
 30
0.0
 11
148.3
 21
-92.3
 31
0.0
  0
LINE
  5
183
330
6F
100
AcDbEntity
  8
BLACK
  6
Continuous
100
AcDbLine
 10
238.3
 20
-35.3
 30
0.0
 11
213.3
 21
-35.3
 31
0.0
  0
CIRCLE
  5
184
330
6F
100
AcDbEntity
  8
BLACK
100
AcDbCircle
 10
87.3
 20
-109.3
 30
0.0
 40
2.0
  0
ARC
  5
185
330
6F
100
AcDbEntity
  8
BLACK
100
AcDbCircle
 10
80.29999999999999
 20
-189.3
 30
0.0
 40
1.0
100
AcDbArc
 50
180.0
 51
270.0
  0
ARC
  5
186
330
6F
100
AcDbEntity
  8
BLACK
100
AcDbCircle
 10
81.3
 20
-124.3
 30
0.0
 40
1.0
100
AcDbArc
 50
0.0
 51
90.0
  0
ARC
  5
187
330
6F
100
AcDbEntity
  8
BLACK
100
AcDbCircle
 10
258.3
 20
-211.3
 30
0.0
 40
1.0
100
AcDbArc
 50
270.0
 51
0.0
  0
LINE
  5
189
330
6F
100
AcDbEntity
  8
BLACK
  6
Continuous
100
AcDbLine
 10
258.3
 20
-94.29999999999999
 30
0.0
 11
258.3
 21
-92.3
 31
0.0
  0
ARC
  5
18A
330
6F
100
AcDbEntity
  8
BLACK
100
AcDbCircle
 10
81.3
 20
-169.3
 30
0.0
 40
1.0
100
AcDbArc
 50
0.0
 51
90.0
  0
LINE
  5
18B
330
6F
100
AcDbEntity
  8
BLACK
  6
Continuous
100
AcDbLine
 10
82.3
 20
-189.3
 30
0.0
 11
82.3
 21
-169.3
 31
0.0
  0
ARC
  5
18C
330
6F
100
AcDbEntity
  8
BLACK
100
AcDbCircle
 10
81.3
 20
-189.3
 30
0.0
 40
1.0
100
AcDbArc
 50
270.0
 51
0.0
  0
CIRCLE
  5
18D
330
6F
100
AcDbEntity
  8
BLACK
100
AcDbCircle
 10
87.3
 20
-203.3
 30
0.0
 40
2.0
  0
LINE
  5
18E
330
6F
100
AcDbEntity
  8
BLACK
  6
Continuous
100
AcDbLine
 10
82.3
 20
-144.3
 30
0.0
 11
82.3
 21
-124.3
 31
0.0
  0
ARC
  5
18F
330
6F
100
AcDbEntity
  8
BLACK
100
AcDbCircle
 10
81.3
 20
-144.3
 30
0.0
 40
1.0
100
AcDbArc
 50
270.0
 51
0.0
  0
LINE
  5
190
330
6F
100
AcDbEntity
  8
BLACK
  6
Continuous
100
AcDbLine
 10
103.3
 20
-35.3
 30
0.0
 11
82.3
 21
-35.3
 31
0.0
  0
LINE
  5
191
330
6F
100
AcDbEntity
  8
BLACK
  6
Continuous
100
AcDbLine
 10
168.3
 20
-100.3
 30
0.0
 11
148.3
 21
-100.3
 31
0.0
  0
LINE
  5
192
330
6F
100
AcDbEntity
  8
BLACK
  6
Continuous
100
AcDbLine
 10
168.3
 20
-100.3
 30
0.0
 11
148.3
 21
-100.3
 31
0.0
  0
ARC
  5
193
330
6F
100
AcDbEntity
  8
BLACK
100
AcDbCircle
 10
148.3
 20
-102.3
 30
0.0
 40
1.0
100
AcDbArc
 50
180.0
 51
270.0
  0
ARC
  5
194
330
6F
100
AcDbEntity
  8
BLACK
100
AcDbCircle
 10
258.3
 20
-102.3
 30
0.0
 40
1.0
100
AcDbArc
 50
270.0
 51
0.0
  0
ARC
  5
195
330
6F
100
AcDbEntity
  8
BLACK
100
AcDbCircle
 10
123.3
 20
-211.3
 30
0.0
 40
1.0
100
AcDbArc
 50
0.0
 51
90.0
  0
ARC
  5
196
330
6F
100
AcDbEntity
  8
BLACK
100
AcDbCircle
 10
238.3
 20
-102.3
 30
0.0
 40
1.0
100
AcDbArc
 50
180.0
 51
270.0
  0
LINE
  5
197
330
6F
100
AcDbEntity
  8
BLACK
  6
Continuous
100
AcDbLine
 10
258.3
 20
-100.3
 30
0.0
 11
238.3
 21
-100.3
 31
0.0
  0
LINE
  5
198
330
6F
100
AcDbEntity
  8
BLACK
  6
Continuous
100
AcDbLine
 10
124.3
 20
-211.3
 30
0.0
 11
124.3
 21
-212.3
 31
0.0
  0
ARC
  5
199
330
6F
100
AcDbEntity
  8
BLACK
100
AcDbCircle
 10
123.3
 20
-212.3
 30
0.0
 40
1.0
100
AcDbArc
 50
270.0
 51
0.0
  0
LINE
  5
19A
330
6F
100
AcDbEntity
  8
BLACK
  6
Continuous
100
AcDbLine
 10
213.3
 20
-100.3
 30
0.0
 11
193.3
 21
-100.3
 31
0.0
  0
LINE
  5
19B
330
6F
100
AcDbEntity
  8
BLACK
  6
Continuous
100
AcDbLine
 10
123.3
 20
-210.3
 30
0.0
 11
103.3
 21
-210.3
 31
0.0
  0
LINE
  5
19C
330
6F
100
AcDbEntity
  8
BLACK
  6
Continuous
100
AcDbLine
 10
123.3
 20
-213.3
 30
0.0
 11
103.3
 21
-213.3
 31
0.0
  0
LINE
  5
19D
330
6F
100
AcDbEntity
  8
BLACK
  6
Continuous
100
AcDbLine
 10
258.3
 20
-103.3
 30
0.0
 11
238.3
 21
-103.3
 31
0.0
  0
LINE
  5
19E
330
6F
100
AcDbEntity
  8
BLACK
  6
Continuous
100
AcDbLine
 10
123.3
 20
-213.3
 30
0.0
 11
103.3
 21
-213.3
 31
0.0
  0
LINE
  5
19F
330
6F
100
AcDbEntity
  8
BLACK
  6
Continuous
100
AcDbLine
 10
213.3
 20
-103.3
 30
0.0
 11
193.3
 21
-103.3
 31
0.0
  0
LINE
  5
1A0
330
6F
100
AcDbEntity
  8
BLACK
  6
Continuous
100
AcDbLine
 10
102.3
 20
-211.3
 30
0.0
 11
102.3
 21
-212.3
 31
0.0
  0
LINE
  5
1A1
330
6F
100
AcDbEntity
  8
BLACK
  6
Continuous
100
AcDbLine
 10
258.3
 20
-100.3
 30
0.0
 11
238.3
 21
-100.3
 31
0.0
  0
ARC
  5
1A2
330
6F
100
AcDbEntity
  8
BLACK
100
AcDbCircle
 10
103.3
 20
-211.3
 30
0.0
 40
1.0
100
AcDbArc
 50
90.0
 51
180.0
  0
LINE
  5
1A3
330
6F
100
AcDbEntity
  8
BLACK
  6
Continuous
100
AcDbLine
 10
123.3
 20
-213.3
 30
0.0
 11
103.3
 21
-213.3
 31
0.0
  0
LINE
  5
1A4
330
6F
100
AcDbEntity
  8
BLACK
  6
Continuous
100
AcDbLine
 10
213.3
 20
-100.3
 30
0.0
 11
193.3
 21
-100.3
 31
0.0
  0
LINE
  5
1A5
330
6F
100
AcDbEntity
  8
BLACK
  6
Continuous
100
AcDbLine
 10
169.3
 20
-101.3
 30
0.0
 11
169.3
 21
-102.3
 31
0.0
  0
LINE
  5
1A6
330
6F
100
AcDbEntity
  8
BLACK
  6
Continuous
100
AcDbLine
 10
168.3
 20
-103.3
 30
0.0
 11
148.3
 21
-103.3
 31
0.0
  0
LINE
  5
1A7
330
6F
100
AcDbEntity
  8
BLACK
  6
Continuous
100
AcDbLine
 10
213.3
 20
-100.3
 30
0.0
 11
193.3
 21
-100.3
 31
0.0
  0
ARC
  5
1A8
330
6F
100
AcDbEntity
  8
BLACK
100
AcDbCircle
 10
168.3
 20
-101.3
 30
0.0
 40
1.0
100
AcDbArc
 50
0.0
 51
90.0
  0
ARC
  5
1A9
330
6F
100
AcDbEntity
  8
BLACK
100
AcDbCircle
 10
193.3
 20
-102.3
 30
0.0
 40
1.0
100
AcDbArc
 50
180.0
 51
270.0
  0
LINE
  5
1AA
330
6F
100
AcDbEntity
  8
BLACK
  6
Continuous
100
AcDbLine
 10
258.3
 20
-103.3
 30
0.0
 11
238.3
 21
-103.3
 31
0.0
  0
LINE
  5
1AB
330
6F
100
AcDbEntity
  8
BLACK
  6
Continuous
100
AcDbLine
 10
168.3
 20
-103.3
 30
0.0
 11
148.3
 21
-103.3
 31
0.0
  0
ARC
  5
1AC
330
6F
100
AcDbEntity
  8
BLACK
100
AcDbCircle
 10
193.3
 20
-101.3
 30
0.0
 40
1.0
100
AcDbArc
 50
90.0
 51
180.0
  0
LINE
  5
1AD
330
6F
100
AcDbEntity
  8
BLACK
  6
Continuous
100
AcDbLine
 10
258.3
 20
-100.3
 30
0.0
 11
238.3
 21
-100.3
 31
0.0
  0
ARC
  5
1AE
330
6F
100
AcDbEntity
  8
BLACK
100
AcDbCircle
 10
148.3
 20
-101.3
 30
0.0
 40
1.0
100
AcDbArc
 50
90.0
 51
180.0
  0
LINE
  5
1AF
330
6F
100
AcDbEntity
  8
BLACK
  6
Continuous
100
AcDbLine
 10
123.3
 20
-210.3
 30
0.0
 11
103.3
 21
-210.3
 31
0.0
  0
ARC
  5
1B0
330
6F
100
AcDbEntity
  8
BLACK
100
AcDbCircle
 10
213.3
 20
-101.3
 30
0.0
 40
1.0
100
AcDbArc
 50
0.0
 51
90.0
  0
ARC
  5
1B1
330
6F
100
AcDbEntity
  8
BLACK
100
AcDbCircle
 10
168.3
 20
-102.3
 30
0.0
 40
1.0
100
AcDbArc
 50
270.0
 51
0.0
  0
LINE
  5
1B2
330
6F
100
AcDbEntity
  8
BLACK
  6
Continuous
100
AcDbLine
 10
213.3
 20
-103.3
 30
0.0
 11
193.3
 21
-103.3
 31
0.0
  0
ARC
  5
1B3
330
6F
100
AcDbEntity
  8
BLACK
100
AcDbCircle
 10
238.3
 20
-101.3
 30
0.0
 40
1.0
100
AcDbArc
 50
90.0
 51
180.0
  0
LINE
  5
1B4
330
6F
100
AcDbEntity
  8
BLACK
  6
Continuous
100
AcDbLine
 10
258.3
 20
-209.3
 30
0.0
 11
238.3
 21
-209.3
 31
0.0
  0
ARC
  5
1B5
330
6F
100
AcDbEntity
  8
BLACK
100
AcDbCircle
 10
258.3
 20
-101.3
 30
0.0
 40
1.0
100
AcDbArc
 50
0.0
 51
90.0
  0
LINE
  5
1B6
330
6F
100
AcDbEntity
  8
BLACK
  6
Continuous
100
AcDbLine
 10
259.3
 20
-101.3
 30
0.0
 11
259.3
 21
-102.3
 31
0.0
  0
LINE
  5
1B7
330
6F
100
AcDbEntity
  8
BLACK
  6
Continuous
100
AcDbLine
 10
214.3
 20
-101.3
 30
0.0
 11
214.3
 21
-102.3
 31
0.0
  0
ARC
  5
1B8
330
6F
100
AcDbEntity
  8
BLACK
100
AcDbCircle
 10
213.3
 20
-102.3
 30
0.0
 40
1.0
100
AcDbArc
 50
270.0
 51
0.0
  0
ARC
  5
1B9
330
6F
100
AcDbEntity
  8
BLACK
100
AcDbCircle
 10
103.3
 20
-212.3
 30
0.0
 40
1.0
100
AcDbArc
 50
180.0
 51
270.0
  0
LINE
  5
1BA
330
6F
100
AcDbEntity
  8
BLACK
  6
Continuous
100
AcDbLine
 10
258.3
 20
-103.3
 30
0.0
 11
238.3
 21
-103.3
 31
0.0
  0
LINE
  5
1BB
330
6F
100
AcDbEntity
  8
BLACK
  6
Continuous
100
AcDbLine
 10
192.3
 20
-101.3
 30
0.0
 11
192.3
 21
-102.3
 31
0.0
  0
LINE
  5
1BC
330
6F
100
AcDbEntity
  8
BLACK
  6
Continuous
100
AcDbLine
 10
168.3
 20
-100.3
 30
0.0
 11
148.3
 21
-100.3
 31
0.0
  0
LINE
  5
1BD
330
6F
100
AcDbEntity
  8
BLACK
  6
Continuous
100
AcDbLine
 10
213.3
 20
-103.3
 30
0.0
 11
193.3
 21
-103.3
 31
0.0
  0
LINE
  5
1BE
330
6F
100
AcDbEntity
  8
BLACK
  6
Continuous
100
AcDbLine
 10
168.3
 20
-103.3
 30
0.0
 11
148.3
 21
-103.3
 31
0.0
  0
LINE
  5
1BF
330
6F
100
AcDbEntity
  8
BLACK
  6
Continuous
100
AcDbLine
 10
147.3
 20
-101.3
 30
0.0
 11
147.3
 21
-102.3
 31
0.0
  0
LINE
  5
1C0
330
6F
100
AcDbEntity
  8
BLACK
  6
Continuous
100
AcDbLine
 10
237.3
 20
-101.3
 30
0.0
 11
237.3
 21
-102.3
 31
0.0
  0
LINE
  5
1C1
330
6F
100
AcDbEntity
  8
BLACK
  6
Continuous
100
AcDbLine
 10
214.3
 20
-401.2999999999998
 30
0.0
 11
214.3
 21
-402.3
 31
0.0
  0
ARC
  5
1C2
330
6F
100
AcDbEntity
  8
BLACK
100
AcDbCircle
 10
168.3
 20
-401.2999999999998
 30
0.0
 40
1.0
100
AcDbArc
 50
0.0
 51
90.0
  0
LINE
  5
1C3
330
6F
100
AcDbEntity
  8
BLACK
  6
Continuous
100
AcDbLine
 10
123.3
 20
-401.2999999999998
 30
0.0
 11
103.3
 21
-401.2999999999998
 31
0.0
  0
ARC
  5
1C4
330
6F
100
AcDbEntity
  8
BLACK
100
AcDbCircle
 10
123.3
 20
-403.3
 30
0.0
 40
1.0
100
AcDbArc
 50
270.0
 51
0.0
  0
LINE
  5
1C5
330
6F
100
AcDbEntity
  8
BLACK
  6
Continuous
100
AcDbLine
 10
237.3
 20
-401.2999999999998
 30
0.0
 11
237.3
 21
-402.3
 31
0.0
  0
ARC
  5
1C6
330
6F
100
AcDbEntity
  8
BLACK
100
AcDbCircle
 10
193.3
 20
-402.3
 30
0.0
 40
1.0
100
AcDbArc
 50
180.0
 51
270.0
  0
LINE
  5
1C7
330
6F
100
AcDbEntity
  8
BLACK
  6
Continuous
100
AcDbLine
 10
258.3
 20
-403.3
 30
0.0
 11
238.3
 21
-403.3
 31
0.0
  0
ARC
  5
1C8
330
6F
100
AcDbEntity
  8
BLACK
100
AcDbCircle
 10
148.3
 20
-401.2999999999998
 30
0.0
 40
1.0
100
AcDbArc
 50
90.0
 51
180.0
  0
ARC
  5
1C9
330
6F
100
AcDbEntity
  8
BLACK
100
AcDbCircle
 10
193.3
 20
-401.2999999999998
 30
0.0
 40
1.0
100
AcDbArc
 50
90.0
 51
180.0
  0
LINE
  5
1CA
330
6F
100
AcDbEntity
  8
BLACK
  6
Continuous
100
AcDbLine
 10
213.3
 20
-400.3
 30
0.0
 11
193.3
 21
-400.3
 31
0.0
  0
LINE
  5
1CB
330
6F
100
AcDbEntity
  8
BLACK
  6
Continuous
100
AcDbLine
 10
168.3
 20
-400.3
 30
0.0
 11
148.3
 21
-400.3
 31
0.0
  0
LINE
  5
1D0
330
6F
100
AcDbEntity
  8
BLACK
  6
Continuous
100
AcDbLine
 10
80.29999999999999
 20
-359.3
 30
0.0
 11
81.3
 21
-359.3
 31
0.0
  0
ARC
  5
1D2
330
6F
100
AcDbEntity
  8
BLACK
100
AcDbCircle
 10
81.3
 20
-335.3
 30
0.0
 40
1.0
100
AcDbArc
 50
270.0
 51
0.0
  0
ARC
  5
1D3
330
6F
100
AcDbEntity
  8
BLACK
100
AcDbCircle
 10
81.3
 20
-360.3
 30
0.0
 40
1.0
100
AcDbArc
 50
0.0
 51
90.0
  0
LINE
  5
1D4
330
6F
100
AcDbEntity
  8
BLACK
  6
Continuous
100
AcDbLine
 10
80.29999999999999
 20
-314.3
 30
0.0
 11
81.3
 21
-314.3
 31
0.0
  0
LINE
  5
1D5
330
6F
100
AcDbEntity
  8
BLACK
  6
Continuous
100
AcDbLine
 10
82.3
 20
-380.3
 30
0.0
 11
82.3
 21
-360.3
 31
0.0
  0
LINE
  5
1D7
330
6F
100
AcDbEntity
  8
BLACK
  6
Continuous
100
AcDbLine
 10
82.3
 20
-335.3
 30
0.0
 11
82.3
 21
-315.3
 31
0.0
  0
ARC
  5
1D8
330
6F
100
AcDbEntity
  8
BLACK
100
AcDbCircle
 10
81.3
 20
-315.3
 30
0.0
 40
1.0
100
AcDbArc
 50
0.0
 51
90.0
  0
LINE
  5
1DA
330
6F
100
AcDbEntity
  8
BLACK
  6
Continuous
100
AcDbLine
 10
81.3
 20
-336.3
 30
0.0
 11
80.29999999999999
 21
-336.3
 31
0.0
  0
LINE
  5
1DC
330
6F
100
AcDbEntity
  8
BLACK
  6
Continuous
100
AcDbLine
 10
79.29999999999998
 20
-92.3
 30
0.0
 11
79.29999999999998
 21
-73.3
 31
0.0
  0
LINE
  5
1DD
330
6F
100
AcDbEntity
  8
BLACK
  6
Continuous
100
AcDbLine
 10
79.29999999999998
 20
-35.3
 30
0.0
 11
82.3
 21
-35.3
 31
0.0
  0
LINE
  5
1DE
330
6F
100
AcDbEntity
  8
BLACK
  6
Continuous
100
AcDbLine
 10
82.3
 20
-241.3
 30
0.0
 11
82.3
 21
-260.3
 31
0.0
  0
LINE
  5
1DF
330
6F
100
AcDbEntity
  8
BLACK
  6
Continuous
100
AcDbLine
 10
32.3
 20
-103.3
 30
0.0
 11
32.3
 21
-100.3
 31
0.0
  0
LINE
  5
1E0
330
6F
100
AcDbEntity
  8
BLACK
  6
Continuous
100
AcDbLine
 10
32.3
 20
-212.3
 30
0.0
 11
32.3
 21
-209.3
 31
0.0
  0
LINE
  5
1E1
330
6F
100
AcDbEntity
  8
BLACK
  6
Continuous
100
AcDbLine
 10
281.3
 20
-279.3
 30
0.0
 11
278.3
 21
-279.3
 31
0.0
  0
LINE
  5
1E2
330
6F
100
AcDbEntity
  8
BLACK
  6
Continuous
100
AcDbLine
 10
51.29999999999999
 20
-400.3
 30
0.0
 11
70.3
 21
-400.3
 31
0.0
  0
LINE
  5
1E3
330
6F
100
AcDbEntity
  8
BLACK
  6
Continuous
100
AcDbLine
 10
79.29999999999998
 20
-279.3
 30
0.0
 11
82.3
 21
-279.3
 31
0.0
  0
LINE
  5
1E4
330
6F
100
AcDbEntity
  8
BLACK
  6
Continuous
100
AcDbLine
 10
51.29999999999999
 20
-209.3
 30
0.0
 11
51.29999999999999
 21
-212.3
 31
0.0
  0
LINE
  5
1E5
330
6F
100
AcDbEntity
  8
BLACK
  6
Continuous
100
AcDbLine
 10
13.3
 20
-400.3
 30
0.0
 11
32.3
 21
-400.3
 31
0.0
  0
LINE
  5
1E6
330
6F
100
AcDbEntity
  8
BLACK
  6
Continuous
100
AcDbLine
 10
51.29999999999999
 20
-403.3
 30
0.0
 11
51.29999999999999
 21
-400.3
 31
0.0
  0
LINE
  5
1E7
330
6F
100
AcDbEntity
  8
BLACK
  6
Continuous
100
AcDbLine
 10
79.29999999999998
 20
-260.3
 30
0.0
 11
79.29999999999998
 21
-279.3
 31
0.0
  0
LINE
  5
1E8
330
6F
100
AcDbEntity
  8
BLACK
  6
Continuous
100
AcDbLine
 10
70.3
 20
-209.3
 30
0.0
 11
51.29999999999999
 21
-209.3
 31
0.0
  0
LINE
  5
1E9
330
6F
100
AcDbEntity
  8
BLACK
  6
Continuous
100
AcDbLine
 10
32.3
 20
-400.3
 30
0.0
 11
32.3
 21
-403.3
 31
0.0
  0
LINE
  5
1EA
330
6F
100
AcDbEntity
  8
BLACK
  6
Continuous
100
AcDbLine
 10
51.29999999999999
 20
-212.3
 30
0.0
 11
32.3
 21
-212.3
 31
0.0
  0
LINE
  5
1EB
330
6F
100
AcDbEntity
  8
BLACK
  6
Continuous
100
AcDbLine
 10
51.29999999999999
 20
-103.3
 30
0.0
 11
70.3
 21
-103.3
 31
0.0
  0
LINE
  5
1EC
330
6F
100
AcDbEntity
  8
BLACK
  6
Continuous
100
AcDbLine
 10
79.29999999999998
 20
-222.3
 30
0.0
 11
79.29999999999998
 21
-241.3
 31
0.0
  0
LINE
  5
1ED
330
6F
100
AcDbEntity
  8
BLACK
  6
Continuous
100
AcDbLine
 10
32.3
 20
-100.3
 30
0.0
 11
51.29999999999999
 21
-100.3
 31
0.0
  0
LINE
  5
1EE
330
6F
100
AcDbEntity
  8
BLACK
  6
Continuous
100
AcDbLine
 10
82.3
 20
-260.3
 30
0.0
 11
79.29999999999998
 21
-260.3
 31
0.0
  0
LINE
  5
1EF
330
6F
100
AcDbEntity
  8
BLACK
  6
Continuous
100
AcDbLine
 10
278.3
 20
-260.3
 30
0.0
 11
281.3
 21
-260.3
 31
0.0
  0
LINE
  5
1F1
330
6F
100
AcDbEntity
  8
BLACK
  6
Continuous
100
AcDbLine
 10
79.29999999999998
 20
-241.3
 30
0.0
 11
82.3
 21
-241.3
 31
0.0
  0
LINE
  5
1F2
330
6F
100
AcDbEntity
  8
BLACK
  6
Continuous
100
AcDbLine
 10
32.3
 20
-209.3
 30
0.0
 11
13.3
 21
-209.3
 31
0.0
  0
LINE
  5
1F3
330
6F
100
AcDbEntity
  8
BLACK
  6
Continuous
100
AcDbLine
 10
79.29999999999998
 20
-73.3
 30
0.0
 11
82.3
 21
-73.3
 31
0.0
  0
LINE
  5
1F4
330
6F
100
AcDbEntity
  8
BLACK
  6
Continuous
100
AcDbLine
 10
13.3
 20
-103.3
 30
0.0
 11
32.3
 21
-103.3
 31
0.0
  0
LINE
  5
1F5
330
6F
100
AcDbEntity
  8
BLACK
  6
Continuous
100
AcDbLine
 10
79.29999999999998
 20
-54.29999999999999
 30
0.0
 11
79.29999999999998
 21
-35.3
 31
0.0
  0
LINE
  5
1F6
330
6F
100
AcDbEntity
  8
BLACK
  6
Continuous
100
AcDbLine
 10
82.3
 20
-222.3
 30
0.0
 11
79.29999999999998
 21
-222.3
 31
0.0
  0
LINE
  5
1F8
330
6F
100
AcDbEntity
  8
BLACK
  6
Continuous
100
AcDbLine
 10
51.29999999999999
 20
-100.3
 30
0.0
 11
51.29999999999999
 21
-103.3
 31
0.0
  0
LINE
  5
1F9
330
6F
100
AcDbEntity
  8
BLACK
  6
Continuous
100
AcDbLine
 10
82.3
 20
-92.3
 30
0.0
 11
79.29999999999998
 21
-92.3
 31
0.0
  0
LINE
  5
1FA
330
6F
100
AcDbEntity
  8
BLACK
  6
Continuous
100
AcDbLine
 10
82.3
 20
-54.29999999999999
 30
0.0
 11
79.29999999999998
 21
-54.29999999999999
 31
0.0
  0
LINE
  5
1FB
330
6F
100
AcDbEntity
  8
BLACK
  6
Continuous
100
AcDbLine
 10
32.3
 20
-403.3
 30
0.0
 11
51.29999999999999
 21
-403.3
 31
0.0
  0
LINE
  5
1FC
330
6F
100
AcDbEntity
  8
BLACK
  6
Continuous
100
AcDbLine
 10
82.3
 20
-73.3
 30
0.0
 11
82.3
 21
-54.29999999999999
 31
0.0
  0
LINE
  5
1FD
330
6F
100
AcDbEntity
  8
BLACK
  6
Continuous
100
AcDbLine
 10
281.3
 20
-260.3
 30
0.0
 11
281.3
 21
-279.3
 31
0.0
  0
CIRCLE
  5
200
330
6F
100
AcDbEntity
  8
BLACK
100
AcDbCircle
 10
252.8
 20
-370.8
 30
0.0
 40
1.581139999999999
  0
ARC
  5
201
330
6F
100
AcDbEntity
  8
BLACK
100
AcDbCircle
 10
278.3
 20
-400.3
 30
0.0
 40
6.0
100
AcDbArc
 50
270.0
 51
0.0
  0
ARC
  5
202
330
6F
100
AcDbEntity
  8
BLACK
100
AcDbCircle
 10
82.3
 20
-400.3
 30
0.0
 40
6.0
100
AcDbArc
 50
180.0
 51
270.0
  0
ARC
  5
203
330
6F
100
AcDbEntity
  8
BLACK
100
AcDbCircle
 10
278.3
 20
-209.3
 30
0.0
 40
6.0
100
AcDbArc
 50
270.0
 51
0.0
  0
CIRCLE
  5
204
330
6F
100
AcDbEntity
  8
BLACK
100
AcDbCircle
 10
176.3
 20
-370.8
 30
0.0
 40
1.581139999999999
  0
ARC
  5
205
330
6F
100
AcDbEntity
  8
BLACK
100
AcDbCircle
 10
278.3
 20
-103.3
 30
0.0
 40
6.0
100
AcDbArc
 50
0.0
 51
90.0
  0
ARC
  5
206
330
6F
100
AcDbEntity
  8
BLACK
100
AcDbCircle
 10
82.3
 20
-103.3
 30
0.0
 40
6.0
100
AcDbArc
 50
90.0
 51
180.0
  0
ARC
  5
207
330
6F
100
AcDbEntity
  8
BLACK
100
AcDbCircle
 10
82.3
 20
-209.3
 30
0.0
 40
6.0
100
AcDbArc
 50
180.0
 51
270.0
  0
ARC
  5
208
330
6F
100
AcDbEntity
  8
BLACK
100
AcDbCircle
 10
82.3
 20
-294.3
 30
0.0
 40
6.0
100
AcDbArc
 50
90.0
 51
180.0
  0
ARC
  5
209
330
6F
100
AcDbEntity
  8
BLACK
100
AcDbCircle
 10
278.3
 20
-294.3
 30
0.0
 40
6.0
100
AcDbArc
 50
0.0
 51
90.0
  0
LINE
  5
20A
330
6F
100
AcDbEntity
  8
BLACK
  6
Continuous
100
AcDbLine
 10
32.3
 20
-291.3
 30
0.0
 11
51.29999999999999
 21
-291.3
 31
0.0
  0
LINE
  5
20B
330
6F
100
AcDbEntity
  8
BLACK
  6
Continuous
100
AcDbLine
 10
278.3
 20
-222.3
 30
0.0
 11
281.3
 21
-222.3
 31
0.0
  0
LINE
  5
20C
330
6F
100
AcDbEntity
  8
BLACK
  6
Continuous
100
AcDbLine
 10
51.29999999999999
 20
-294.3
 30
0.0
 11
70.3
 21
-294.3
 31
0.0
  0
LINE
  5
20D
330
6F
100
AcDbEntity
  8
BLACK
  6
Continuous
100
AcDbLine
 10
281.3
 20
-222.3
 30
0.0
 11
281.3
 21
-241.3
 31
0.0
  0
LINE
  5
20E
330
6F
100
AcDbEntity
  8
BLACK
  6
Continuous
100
AcDbLine
 10
281.3
 20
-54.29999999999999
 30
0.0
 11
281.3
 21
-35.3
 31
0.0
  0
LINE
  5
20F
330
6F
100
AcDbEntity
  8
BLACK
  6
Continuous
100
AcDbLine
 10
281.3
 20
-241.3
 30
0.0
 11
278.3
 21
-241.3
 31
0.0
  0
LINE
  5
210
330
6F
100
AcDbEntity
  8
BLACK
  6
Continuous
100
AcDbLine
 10
51.29999999999999
 20
-291.3
 30
0.0
 11
51.29999999999999
 21
-294.3
 31
0.0
  0
LINE
  5
211
330
6F
100
AcDbEntity
  8
BLACK
  6
Continuous
100
AcDbLine
 10
278.3
 20
-241.3
 30
0.0
 11
278.3
 21
-260.3
 31
0.0
  0
LINE
  5
212
330
6F
100
AcDbEntity
  8
BLACK
  6
Continuous
100
AcDbLine
 10
32.3
 20
-294.3
 30
0.0
 11
32.3
 21
-291.3
 31
0.0
  0
LINE
  5
213
330
6F
100
AcDbEntity
  8
BLACK
  6
Continuous
100
AcDbLine
 10
281.3
 20
-92.3
 30
0.0
 11
281.3
 21
-73.3
 31
0.0
  0
LINE
  5
214
330
6F
100
AcDbEntity
  8
BLACK
  6
Continuous
100
AcDbLine
 10
281.3
 20
-73.3
 30
0.0
 11
278.3
 21
-73.3
 31
0.0
  0
LINE
  5
215
330
6F
100
AcDbEntity
  8
BLACK
  6
Continuous
100
AcDbLine
 10
278.3
 20
-73.3
 30
0.0
 11
278.3
 21
-54.29999999999999
 31
0.0
  0
LINE
  5
216
330
6F
100
AcDbEntity
  8
BLACK
  6
Continuous
100
AcDbLine
 10
278.3
 20
-54.29999999999999
 30
0.0
 11
281.3
 21
-54.29999999999999
 31
0.0
  0
LINE
  5
217
330
6F
100
AcDbEntity
  8
BLACK
  6
Continuous
100
AcDbLine
 10
13.3
 20
-294.3
 30
0.0
 11
32.3
 21
-294.3
 31
0.0
  0
ARC
  5
218
330
6F
100
AcDbEntity
  8
BLACK
100
AcDbCircle
 10
280.3
 20
-189.3
 30
0.0
 40
1.0
100
AcDbArc
 50
270.0
 51
0.0
  0
CIRCLE
  5
219
330
6F
100
AcDbEntity
  8
BLACK
100
AcDbCircle
 10
126.71
 20
-114.8
 30
0.0
 40
2.0
  0
LINE
  5
21A
330
6F
100
AcDbEntity
  8
BLACK
  6
Continuous
100
AcDbLine
 10
76.29999999999999
 20
-209.3
 30
0.0
 11
76.29999999999999
 21
-103.3
 31
0.0
  0
ARC
  5
21B
330
6F
100
AcDbEntity
  8
BLACK
100
AcDbCircle
 10
279.3
 20
-124.3
 30
0.0
 40
1.0
100
AcDbArc
 50
90.0
 51
180.0
  0
CIRCLE
  5
21C
330
6F
100
AcDbEntity
  8
BLACK
100
AcDbCircle
 10
126.71
 20
-197.3
 30
0.0
 40
2.0
  0
CIRCLE
  5
21D
330
6F
100
AcDbEntity
  8
BLACK
100
AcDbCircle
 10
253.71
 20
-114.8
 30
0.0
 40
2.0
  0
LINE
  5
21E
330
6F
100
AcDbEntity
  8
BLACK
  6
Continuous
100
AcDbLine
 10
280.3
 20
-190.3
 30
0.0
 11
279.3
 21
-190.3
 31
0.0
  0
LINE
  5
21F
330
6F
100
AcDbEntity
  8
BLACK
  6
Continuous
100
AcDbLine
 10
123.3
 20
-103.3
 30
0.0
 11
103.3
 21
-103.3
 31
0.0
  0
LINE
  5
220
330
6F
100
AcDbEntity
  8
BLACK
  6
Continuous
100
AcDbLine
 10
278.3
 20
-189.3
 30
0.0
 11
278.3
 21
-169.3
 31
0.0
  0
LINE
  5
221
330
6F
100
AcDbEntity
  8
BLACK
  6
Continuous
100
AcDbLine
 10
281.3
 20
-189.3
 30
0.0
 11
281.3
 21
-169.3
 31
0.0
  0
ARC
  5
222
330
6F
100
AcDbEntity
  8
BLACK
100
AcDbCircle
 10
123.3
 20
-101.3
 30
0.0
 40
1.0
100
AcDbArc
 50
0.0
 51
90.0
  0
ARC
  5
223
330
6F
100
AcDbEntity
  8
BLACK
100
AcDbCircle
 10
123.3
 20
-102.3
 30
0.0
 40
1.0
100
AcDbArc
 50
270.0
 51
0.0
  0
LINE
  5
224
330
6F
100
AcDbEntity
  8
BLACK
  6
Continuous
100
AcDbLine
 10
279.3
 20
-168.3
 30
0.0
 11
280.3
 21
-168.3
 31
0.0
  0
ARC
  5
225
330
6F
100
AcDbEntity
  8
BLACK
100
AcDbCircle
 10
279.3
 20
-189.3
 30
0.0
 40
1.0
100
AcDbArc
 50
180.0
 51
270.0
  0
ARC
  5
226
330
6F
100
AcDbEntity
  8
BLACK
100
AcDbCircle
 10
280.3
 20
-144.3
 30
0.0
 40
1.0
100
AcDbArc
 50
270.0
 51
0.0
  0
ARC
  5
227
330
6F
100
AcDbEntity
  8
BLACK
100
AcDbCircle
 10
103.3
 20
-101.3
 30
0.0
 40
1.0
100
AcDbArc
 50
90.0
 51
180.0
  0
ARC
  5
228
330
6F
100
AcDbEntity
  8
BLACK
100
AcDbCircle
 10
279.3
 20
-169.3
 30
0.0
 40
1.0
100
AcDbArc
 50
90.0
 51
180.0
  0
LINE
  5
229
330
6F
100
AcDbEntity
  8
BLACK
  6
Continuous
100
AcDbLine
 10
280.3
 20
-145.3
 30
0.0
 11
279.3
 21
-145.3
 31
0.0
  0
LINE
  5
22A
330
6F
100
AcDbEntity
  8
BLACK
  6
Continuous
100
AcDbLine
 10
102.3
 20
-101.3
 30
0.0
 11
102.3
 21
-102.3
 31
0.0
  0
LINE
  5
22B
330
6F
100
AcDbEntity
  8
BLACK
  6
Continuous
100
AcDbLine
 10
123.3
 20
-103.3
 30
0.0
 11
103.3
 21
-103.3
 31
0.0
  0
LINE
  5
22C
330
6F
100
AcDbEntity
  8
BLACK
  6
Continuous
100
AcDbLine
 10
123.3
 20
-100.3
 30
0.0
 11
103.3
 21
-100.3
 31
0.0
  0
ARC
  5
22D
330
6F
100
AcDbEntity
  8
BLACK
100
AcDbCircle
 10
280.3
 20
-169.3
 30
0.0
 40
1.0
100
AcDbArc
 50
0.0
 51
90.0
  0
ARC
  5
22E
330
6F
100
AcDbEntity
  8
BLACK
100
AcDbCircle
 10
280.3
 20
-124.3
 30
0.0
 40
1.0
100
AcDbArc
 50
0.0
 51
90.0
  0
LINE
  5
22F
330
6F
100
AcDbEntity
  8
BLACK
  6
Continuous
100
AcDbLine
 10
279.3
 20
-123.3
 30
0.0
 11
280.3
 21
-123.3
 31
0.0
  0
LINE
  5
230
330
6F
100
AcDbEntity
  8
BLACK
  6
Continuous
100
AcDbLine
 10
281.3
 20
-144.3
 30
0.0
 11
281.3
 21
-124.3
 31
0.0
  0
LINE
  5
231
330
6F
100
AcDbEntity
  8
BLACK
  6
Continuous
100
AcDbLine
 10
278.3
 20
-97.3
 30
0.0
 11
82.3
 21
-97.3
 31
0.0
  0
CIRCLE
  5
232
330
6F
100
AcDbEntity
  8
BLACK
100
AcDbCircle
 10
253.71
 20
-197.3
 30
0.0
 40
2.0
  0
LINE
  5
233
330
6F
100
AcDbEntity
  8
BLACK
  6
Continuous
100
AcDbLine
 10
124.3
 20
-101.3
 30
0.0
 11
124.3
 21
-102.3
 31
0.0
  0
LINE
  5
234
330
6F
100
AcDbEntity
  8
BLACK
  6
Continuous
100
AcDbLine
 10
278.3
 20
-144.3
 30
0.0
 11
278.3
 21
-124.3
 31
0.0
  0
LINE
  5
235
330
6F
100
AcDbEntity
  8
BLACK
  6
Continuous
100
AcDbLine
 10
123.3
 20
-103.3
 30
0.0
 11
103.3
 21
-103.3
 31
0.0
  0
LINE
  5
236
330
6F
100
AcDbEntity
  8
BLACK
  6
Continuous
100
AcDbLine
 10
123.3
 20
-100.3
 30
0.0
 11
103.3
 21
-100.3
 31
0.0
  0
ARC
  5
237
330
6F
100
AcDbEntity
  8
BLACK
100
AcDbCircle
 10
103.3
 20
-102.3
 30
0.0
 40
1.0
100
AcDbArc
 50
180.0
 51
270.0
  0
ARC
  5
238
330
6F
100
AcDbEntity
  8
BLACK
100
AcDbCircle
 10
279.3
 20
-144.3
 30
0.0
 40
1.0
100
AcDbArc
 50
180.0
 51
270.0
  0
LINE
  5
239
330
6F
100
AcDbEntity
  8
BLACK
  6
Continuous
100
AcDbLine
 10
284.3
 20
-103.3
 30
0.0
 11
284.3
 21
-209.3
 31
0.0
  0
LINE
  5
23A
330
6F
100
AcDbEntity
  8
BLACK
  6
Continuous
100
AcDbLine
 10
123.3
 20
-100.3
 30
0.0
 11
103.3
 21
-100.3
 31
0.0
  0
LINE
  5
23B
330
6F
100
AcDbEntity
  8
BLACK
  6
Continuous
100
AcDbLine
 10
278.3
 20
-215.3
 30
0.0
 11
82.3
 21
-215.3
 31
0.0
  0
LINE
  5
23C
330
6F
100
AcDbEntity
  8
BLACK
  6
Continuous
100
AcDbLine
 10
13.3
 20
-124.3
 30
0.0
 11
10.3
 21
-124.3
 31
0.0
  0
ARC
  5
23D
330
6F
100
AcDbEntity
  8
BLACK
100
AcDbCircle
 10
41.65
 20
-139.95
 30
0.0
 40
23.0489
100
AcDbArc
 50
93.73139999999999
 51
176.269
  0
LINE
  5
23E
330
6F
100
AcDbEntity
  8
BLACK
  6
Continuous
100
AcDbLine
 10
168.3
 20
-219.3
 30
0.0
 11
168.3
 21
-222.3
 31
0.0
  0
LINE
  5
23F
330
6F
100
AcDbEntity
  8
BLACK
  6
Continuous
100
AcDbLine
 10
213.3
 20
-221.3
 30
0.0
 11
213.3
 21
-219.3
 31
0.0
  0
LINE
  5
240
330
6F
100
AcDbEntity
  8
BLACK
  6
Continuous
100
AcDbLine
 10
168.3
 20
-282.3
 30
0.0
 11
148.3
 21
-282.3
 31
0.0
  0
LINE
  5
241
330
6F
100
AcDbEntity
  8
BLACK
  6
Continuous
100
AcDbLine
 10
213.3
 20
-279.3
 30
0.0
 11
213.3
 21
-282.3
 31
0.0
  0
LINE
  5
242
330
6F
100
AcDbEntity
  8
BLACK
  6
Continuous
100
AcDbLine
 10
70.3
 20
-124.3
 30
0.0
 11
73.3
 21
-124.3
 31
0.0
  0
LINE
  5
243
330
6F
100
AcDbEntity
  8
BLACK
  6
Continuous
100
AcDbLine
 10
193.3
 20
-282.3
 30
0.0
 11
193.3
 21
-279.3
 31
0.0
  0
ARC
  5
244
330
6F
100
AcDbEntity
  8
BLACK
100
AcDbCircle
 10
41.65
 20
-139.95
 30
0.0
 40
12.0934
100
AcDbArc
 50
7.12501
 51
82.87499999999999
  0
LINE
  5
245
330
6F
100
AcDbEntity
  8
BLACK
  6
Continuous
100
AcDbLine
 10
168.3
 20
-219.3
 30
0.0
 11
148.3
 21
-219.3
 31
0.0
  0
LINE
  5
246
330
6F
100
AcDbEntity
  8
BLACK
  6
Continuous
100
AcDbLine
 10
213.3
 20
-219.3
 30
0.0
 11
213.3
 21
-222.3
 31
0.0
  0
LINE
  5
247
330
6F
100
AcDbEntity
  8
BLACK
  6
Continuous
100
AcDbLine
 10
123.3
 20
-281.3
 30
0.0
 11
123.3
 21
-279.3
 31
0.0
  0
LINE
  5
248
330
6F
100
AcDbEntity
  8
BLACK
  6
Continuous
100
AcDbLine
 10
70.3
 20
-169.3
 30
0.0
 11
70.3
 21
-144.3
 31
0.0
  0
LINE
  5
249
330
6F
100
AcDbEntity
  8
BLACK
  6
Continuous
100
AcDbLine
 10
123.3
 20
-279.3
 30
0.0
 11
123.3
 21
-282.3
 31
0.0
  0
LINE
  5
24A
330
6F
100
AcDbEntity
  8
BLACK
  6
Continuous
100
AcDbLine
 10
193.3
 20
-279.3
 30
0.0
 11
168.3
 21
-279.3
 31
0.0
  0
CIRCLE
  5
24B
330
6F
100
AcDbEntity
  8
BLACK
100
AcDbCircle
 10
21.65
 20
-159.95
 30
0.0
 40
2.0
  0
LINE
  5
24C
330
6F
100
AcDbEntity
  8
BLACK
  6
Continuous
100
AcDbLine
 10
70.3
 20
-103.3
 30
0.0
 11
70.3
 21
-124.3
 31
0.0
  0
ARC
  5
24D
330
6F
100
AcDbEntity
  8
BLACK
100
AcDbCircle
 10
41.65
 20
-139.95
 30
0.0
 40
12.0934
100
AcDbArc
 50
97.12499999999998
 51
172.875
  0
CIRCLE
  5
24E
330
6F
100
AcDbEntity
  8
BLACK
100
AcDbCircle
 10
61.65
 20
-159.95
 30
0.0
 40
2.0
  0
ARC
  5
24F
330
6F
100
AcDbEntity
  8
BLACK
100
AcDbCircle
 10
41.65
 20
-139.95
 30
0.0
 40
12.0934
100
AcDbArc
 50
187.125
 51
262.875
  0
LINE
  5
250
330
6F
100
AcDbEntity
  8
BLACK
  6
Continuous
100
AcDbLine
 10
73.3
 20
-144.3
 30
0.0
 11
70.3
 21
-144.3
 31
0.0
  0
LINE
  5
251
330
6F
100
AcDbEntity
  8
BLACK
  6
Continuous
100
AcDbLine
 10
29.65
 20
-141.45
 30
0.0
 11
18.65
 21
-141.45
 31
0.0
  0
LINE
  5
252
330
6F
100
AcDbEntity
  8
BLACK
  6
Continuous
100
AcDbLine
 10
73.3
 20
-189.3
 30
0.0
 11
73.3
 21
-169.3
 31
0.0
  0
LINE
  5
253
330
6F
100
AcDbEntity
  8
BLACK
  6
Continuous
100
AcDbLine
 10
70.3
 20
-189.3
 30
0.0
 11
73.3
 21
-189.3
 31
0.0
  0
ARC
  5
254
330
6F
100
AcDbEntity
  8
BLACK
100
AcDbCircle
 10
41.65
 20
-139.95
 30
0.0
 40
12.0934
100
AcDbArc
 50
277.125
 51
352.87498
  0
LINE
  5
255
330
6F
100
AcDbEntity
  8
BLACK
  6
Continuous
100
AcDbLine
 10
40.14999999999999
 20
-127.95
 30
0.0
 11
40.14999999999999
 21
-116.95
 31
0.0
  0
LINE
  5
256
330
6F
100
AcDbEntity
  8
BLACK
  6
Continuous
100
AcDbLine
 10
168.3
 20
-222.3
 30
0.0
 11
193.3
 21
-222.3
 31
0.0
  0
LINE
  5
257
330
6F
100
AcDbEntity
  8
BLACK
  6
Continuous
100
AcDbLine
 10
168.3
 20
-221.3
 30
0.0
 11
168.3
 21
-219.3
 31
0.0
  0
LINE
  5
258
330
6F
100
AcDbEntity
  8
BLACK
  6
Continuous
100
AcDbLine
 10
238.3
 20
-221.3
 30
0.0
 11
238.3
 21
-219.3
 31
0.0
  0
LINE
  5
259
330
6F
100
AcDbEntity
  8
BLACK
  6
Continuous
100
AcDbLine
 10
70.3
 20
-209.3
 30
0.0
 11
70.3
 21
-189.3
 31
0.0
  0
LINE
  5
25A
330
6F
100
AcDbEntity
  8
BLACK
  6
Continuous
100
AcDbLine
 10
238.3
 20
-219.3
 30
0.0
 11
238.3
 21
-222.3
 31
0.0
  0
LINE
  5
25B
330
6F
100
AcDbEntity
  8
BLACK
  6
Continuous
100
AcDbLine
 10
193.3
 20
-219.3
 30
0.0
 11
193.3
 21
-222.3
 31
0.0
  0
LINE
  5
25C
330
6F
100
AcDbEntity
  8
BLACK
  6
Continuous
100
AcDbLine
 10
103.3
 20
-222.3
 30
0.0
 11
103.3
 21
-219.3
 31
0.0
  0
LINE
  5
25D
330
6F
100
AcDbEntity
  8
BLACK
  6
Continuous
100
AcDbLine
 10
10.3
 20
-144.3
 30
0.0
 11
13.3
 21
-144.3
 31
0.0
  0
LINE
  5
25E
330
6F
100
AcDbEntity
  8
BLACK
  6
Continuous
100
AcDbLine
 10
193.3
 20
-221.3
 30
0.0
 11
193.3
 21
-219.3
 31
0.0
  0
LINE
  5
25F
330
6F
100
AcDbEntity
  8
BLACK
  6
Continuous
100
AcDbLine
 10
13.3
 20
-144.3
 30
0.0
 11
13.3
 21
-169.3
 31
0.0
  0
LINE
  5
260
330
6F
100
AcDbEntity
  8
BLACK
  6
Continuous
100
AcDbLine
 10
148.3
 20
-221.3
 30
0.0
 11
148.3
 21
-219.3
 31
0.0
  0
LINE
  5
261
330
6F
100
AcDbEntity
  8
BLACK
  6
Continuous
100
AcDbLine
 10
148.3
 20
-282.3
 30
0.0
 11
148.3
 21
-279.3
 31
0.0
  0
LINE
  5
262
330
6F
100
AcDbEntity
  8
BLACK
  6
Continuous
100
AcDbLine
 10
258.3
 20
-219.3
 30
0.0
 11
258.3
 21
-222.3
 31
0.0
  0
LINE
  5
263
330
6F
100
AcDbEntity
  8
BLACK
  6
Continuous
100
AcDbLine
 10
123.3
 20
-219.3
 30
0.0
 11
123.3
 21
-222.3
 31
0.0
  0
LINE
  5
264
330
6F
100
AcDbEntity
  8
BLACK
  6
Continuous
100
AcDbLine
 10
123.3
 20
-219.3
 30
0.0
 11
103.3
 21
-219.3
 31
0.0
  0
LINE
  5
265
330
6F
100
AcDbEntity
  8
BLACK
  6
Continuous
100
AcDbLine
 10
13.3
 20
-209.3
 30
0.0
 11
13.3
 21
-189.3
 31
0.0
  0
LINE
  5
266
330
6F
100
AcDbEntity
  8
BLACK
  6
Continuous
100
AcDbLine
 10
148.3
 20
-219.3
 30
0.0
 11
148.3
 21
-222.3
 31
0.0
  0
LINE
  5
267
330
6F
100
AcDbEntity
  8
BLACK
  6
Continuous
100
AcDbLine
 10
123.3
 20
-282.3
 30
0.0
 11
103.3
 21
-282.3
 31
0.0
  0
LINE
  5
268
330
6F
100
AcDbEntity
  8
BLACK
  6
Continuous
100
AcDbLine
 10
13.3
 20
-103.3
 30
0.0
 11
13.3
 21
-124.3
 31
0.0
  0
ARC
  5
269
330
6F
100
AcDbEntity
  8
BLACK
100
AcDbCircle
 10
41.65
 20
-139.95
 30
0.0
 40
23.0489
100
AcDbArc
 50
3.73139
 51
86.2686
  0
LINE
  5
26A
330
6F
100
AcDbEntity
  8
BLACK
  6
Continuous
100
AcDbLine
 10
13.3
 20
-189.3
 30
0.0
 11
10.3
 21
-189.3
 31
0.0
  0
LINE
  5
26B
330
6F
100
AcDbEntity
  8
BLACK
  6
Continuous
100
AcDbLine
 10
258.3
 20
-221.3
 30
0.0
 11
258.3
 21
-219.3
 31
0.0
  0
LINE
  5
26C
330
6F
100
AcDbEntity
  8
BLACK
  6
Continuous
100
AcDbLine
 10
123.3
 20
-221.3
 30
0.0
 11
123.3
 21
-219.3
 31
0.0
  0
ARC
  5
26D
330
6F
100
AcDbEntity
  8
BLACK
100
AcDbCircle
 10
41.65
 20
-139.95
 30
0.0
 40
23.0489
100
AcDbArc
 50
273.7314
 51
356.2686
  0
LINE
  5
26E
330
6F
100
AcDbEntity
  8
BLACK
  6
Continuous
100
AcDbLine
 10
103.3
 20
-282.3
 30
0.0
 11
103.3
 21
-279.3
 31
0.0
  0
LINE
  5
26F
330
6F
100
AcDbEntity
  8
BLACK
  6
Continuous
100
AcDbLine
 10
73.3
 20
-124.3
 30
0.0
 11
73.3
 21
-144.3
 31
0.0
  0
LINE
  5
270
330
6F
100
AcDbEntity
  8
BLACK
  6
Continuous
100
AcDbLine
 10
213.3
 20
-219.3
 30
0.0
 11
193.3
 21
-219.3
 31
0.0
  0
LINE
  5
271
330
6F
100
AcDbEntity
  8
BLACK
  6
Continuous
100
AcDbLine
 10
238.3
 20
-222.3
 30
0.0
 11
213.3
 21
-222.3
 31
0.0
  0
LINE
  5
272
330
6F
100
AcDbEntity
  8
BLACK
  6
Continuous
100
AcDbLine
 10
103.3
 20
-222.3
 30
0.0
 11
82.3
 21
-222.3
 31
0.0
  0
LINE
  5
273
330
6F
100
AcDbEntity
  8
BLACK
  6
Continuous
100
AcDbLine
 10
103.3
 20
-279.3
 30
0.0
 11
103.3
 21
-281.3
 31
0.0
  0
LINE
  5
274
330
6F
100
AcDbEntity
  8
BLACK
  6
Continuous
100
AcDbLine
 10
123.3
 20
-279.3
 30
0.0
 11
148.3
 21
-279.3
 31
0.0
  0
LINE
  5
275
330
6F
100
AcDbEntity
  8
BLACK
  6
Continuous
100
AcDbLine
 10
82.3
 20
-279.3
 30
0.0
 11
103.3
 21
-279.3
 31
0.0
  0
LINE
  5
276
330
6F
100
AcDbEntity
  8
BLACK
  6
Continuous
100
AcDbLine
 10
238.3
 20
-220.3
 30
0.0
 11
238.3
 21
-222.3
 31
0.0
  0
LINE
  5
277
330
6F
100
AcDbEntity
  8
BLACK
  6
Continuous
100
AcDbLine
 10
238.3
 20
-279.3
 30
0.0
 11
238.3
 21
-281.3
 31
0.0
  0
LINE
  5
278
330
6F
100
AcDbEntity
  8
BLACK
  6
Continuous
100
AcDbLine
 10
258.3
 20
-281.3
 30
0.0
 11
258.3
 21
-279.3
 31
0.0
  0
LINE
  5
279
330
6F
100
AcDbEntity
  8
BLACK
  6
Continuous
100
AcDbLine
 10
193.3
 20
-279.3
 30
0.0
 11
193.3
 21
-281.3
 31
0.0
  0
LINE
  5
27A
330
6F
100
AcDbEntity
  8
BLACK
  6
Continuous
100
AcDbLine
 10
213.3
 20
-282.3
 30
0.0
 11
193.3
 21
-282.3
 31
0.0
  0
LINE
  5
27B
330
6F
100
AcDbEntity
  8
BLACK
  6
Continuous
100
AcDbLine
 10
168.3
 20
-281.3
 30
0.0
 11
168.3
 21
-279.3
 31
0.0
  0
LINE
  5
27C
330
6F
100
AcDbEntity
  8
BLACK
  6
Continuous
100
AcDbLine
 10
148.3
 20
-279.3
 30
0.0
 11
148.3
 21
-281.3
 31
0.0
  0
LINE
  5
27D
330
6F
100
AcDbEntity
  8
BLACK
  6
Continuous
100
AcDbLine
 10
103.3
 20
-219.3
 30
0.0
 11
103.3
 21
-221.3
 31
0.0
  0
LINE
  5
27E
330
6F
100
AcDbEntity
  8
BLACK
  6
Continuous
100
AcDbLine
 10
213.3
 20
-281.3
 30
0.0
 11
213.3
 21
-279.3
 31
0.0
  0
LINE
  5
27F
330
6F
100
AcDbEntity
  8
BLACK
  6
Continuous
100
AcDbLine
 10
168.3
 20
-279.3
 30
0.0
 11
168.3
 21
-282.3
 31
0.0
  0
LINE
  5
280
330
6F
100
AcDbEntity
  8
BLACK
  6
Continuous
100
AcDbLine
 10
258.3
 20
-279.3
 30
0.0
 11
258.3
 21
-282.3
 31
0.0
  0
LINE
  5
281
330
6F
100
AcDbEntity
  8
BLACK
  6
Continuous
100
AcDbLine
 10
258.3
 20
-282.3
 30
0.0
 11
238.3
 21
-282.3
 31
0.0
  0
LINE
  5
282
330
6F
100
AcDbEntity
  8
BLACK
  6
Continuous
100
AcDbLine
 10
213.3
 20
-279.3
 30
0.0
 11
238.3
 21
-279.3
 31
0.0
  0
LINE
  5
283
330
6F
100
AcDbEntity
  8
BLACK
  6
Continuous
100
AcDbLine
 10
238.3
 20
-282.3
 30
0.0
 11
238.3
 21
-279.3
 31
0.0
  0
LINE
  5
284
330
6F
100
AcDbEntity
  8
BLACK
  6
Continuous
100
AcDbLine
 10
278.3
 20
-222.3
 30
0.0
 11
258.3
 21
-222.3
 31
0.0
  0
LINE
  5
285
330
6F
100
AcDbEntity
  8
BLACK
  6
Continuous
100
AcDbLine
 10
258.3
 20
-279.3
 30
0.0
 11
278.3
 21
-279.3
 31
0.0
  0
LINE
  5
286
330
6F
100
AcDbEntity
  8
BLACK
  6
Continuous
100
AcDbLine
 10
258.3
 20
-222.3
 30
0.0
 11
258.3
 21
-220.3
 31
0.0
  0
LINE
  5
287
330
6F
100
AcDbEntity
  8
BLACK
  6
Continuous
100
AcDbLine
 10
258.3
 20
-219.3
 30
0.0
 11
238.3
 21
-219.3
 31
0.0
  0
LINE
  5
288
330
6F
100
AcDbEntity
  8
BLACK
  6
Continuous
100
AcDbLine
 10
148.3
 20
-222.3
 30
0.0
 11
123.3
 21
-222.3
 31
0.0
  0
LINE
  5
289
330
6F
100
AcDbEntity
  8
BLACK
  6
Continuous
100
AcDbLine
 10
124.3
 20
-292.3
 30
0.0
 11
124.3
 21
-293.3
 31
0.0
  0
LINE
  5
28A
330
6F
100
AcDbEntity
  8
BLACK
  6
Continuous
100
AcDbLine
 10
258.3
 20
-294.3
 30
0.0
 11
238.3
 21
-294.3
 31
0.0
  0
LINE
  5
28B
330
6F
100
AcDbEntity
  8
BLACK
  6
Continuous
100
AcDbLine
 10
168.3
 20
-291.3
 30
0.0
 11
148.3
 21
-291.3
 31
0.0
  0
LINE
  5
28C
330
6F
100
AcDbEntity
  8
BLACK
  6
Continuous
100
AcDbLine
 10
168.3
 20
-294.3
 30
0.0
 11
148.3
 21
-294.3
 31
0.0
  0
LINE
  5
28D
330
6F
100
AcDbEntity
  8
BLACK
  6
Continuous
100
AcDbLine
 10
258.3
 20
-294.3
 30
0.0
 11
238.3
 21
-294.3
 31
0.0
  0
LINE
  5
28E
330
6F
100
AcDbEntity
  8
BLACK
  6
Continuous
100
AcDbLine
 10
213.3
 20
-291.3
 30
0.0
 11
193.3
 21
-291.3
 31
0.0
  0
LINE
  5
28F
330
6F
100
AcDbEntity
  8
BLACK
  6
Continuous
100
AcDbLine
 10
123.3
 20
-291.3
 30
0.0
 11
103.3
 21
-291.3
 31
0.0
  0
LINE
  5
290
330
6F
100
AcDbEntity
  8
BLACK
  6
Continuous
100
AcDbLine
 10
237.3
 20
-292.3
 30
0.0
 11
237.3
 21
-293.3
 31
0.0
  0
LINE
  5
291
330
6F
100
AcDbEntity
  8
BLACK
  6
Continuous
100
AcDbLine
 10
168.3
 20
-294.3
 30
0.0
 11
148.3
 21
-294.3
 31
0.0
  0
LINE
  5
292
330
6F
100
AcDbEntity
  8
BLACK
  6
Continuous
100
AcDbLine
 10
258.3
 20
-291.3
 30
0.0
 11
238.3
 21
-291.3
 31
0.0
  0
ARC
  5
293
330
6F
100
AcDbEntity
  8
BLACK
100
AcDbCircle
 10
148.3
 20
-292.3
 30
0.0
 40
1.0
100
AcDbArc
 50
90.0
 51
180.0
  0
LINE
  5
294
330
6F
100
AcDbEntity
  8
BLACK
  6
Continuous
100
AcDbLine
 10
147.3
 20
-292.3
 30
0.0
 11
147.3
 21
-293.3
 31
0.0
  0
LINE
  5
295
330
6F
100
AcDbEntity
  8
BLACK
  6
Continuous
100
AcDbLine
 10
192.3
 20
-292.3
 30
0.0
 11
192.3
 21
-293.3
 31
0.0
  0
LINE
  5
296
330
6F
100
AcDbEntity
  8
BLACK
  6
Continuous
100
AcDbLine
 10
213.3
 20
-294.3
 30
0.0
 11
193.3
 21
-294.3
 31
0.0
  0
ARC
  5
297
330
6F
100
AcDbEntity
  8
BLACK
100
AcDbCircle
 10
280.3
 20
-380.3
 30
0.0
 40
1.0
100
AcDbArc
 50
270.0
 51
0.0
  0
LINE
  5
298
330
6F
100
AcDbEntity
  8
BLACK
  6
Continuous
100
AcDbLine
 10
123.3
 20
-294.3
 30
0.0
 11
103.3
 21
-294.3
 31
0.0
  0
LINE
  5
299
330
6F
100
AcDbEntity
  8
BLACK
  6
Continuous
100
AcDbLine
 10
123.3
 20
-294.3
 30
0.0
 11
103.3
 21
-294.3
 31
0.0
  0
LINE
  5
29A
330
6F
100
AcDbEntity
  8
BLACK
  6
Continuous
100
AcDbLine
 10
280.3
 20
-381.3
 30
0.0
 11
279.3
 21
-381.3
 31
0.0
  0
ARC
  5
29B
330
6F
100
AcDbEntity
  8
BLACK
100
AcDbCircle
 10
103.3
 20
-292.3
 30
0.0
 40
1.0
100
AcDbArc
 50
90.0
 51
180.0
  0
LINE
  5
29C
330
6F
100
AcDbEntity
  8
BLACK
  6
Continuous
100
AcDbLine
 10
281.3
 20
-335.3
 30
0.0
 11
281.3
 21
-315.3
 31
0.0
  0
LINE
  5
29D
330
6F
100
AcDbEntity
  8
BLACK
  6
Continuous
100
AcDbLine
 10
281.3
 20
-380.3
 30
0.0
 11
281.3
 21
-360.3
 31
0.0
  0
ARC
  5
29E
330
6F
100
AcDbEntity
  8
BLACK
100
AcDbCircle
 10
280.3
 20
-315.3
 30
0.0
 40
1.0
100
AcDbArc
 50
0.0
 51
90.0
  0
LINE
  5
29F
330
6F
100
AcDbEntity
  8
BLACK
  6
Continuous
100
AcDbLine
 10
279.3
 20
-314.3
 30
0.0
 11
280.3
 21
-314.3
 31
0.0
  0
ARC
  5
2A0
330
6F
100
AcDbEntity
  8
BLACK
100
AcDbCircle
 10
280.3
 20
-335.3
 30
0.0
 40
1.0
100
AcDbArc
 50
270.0
 51
0.0
  0
ARC
  5
2A1
330
6F
100
AcDbEntity
  8
BLACK
100
AcDbCircle
 10
279.3
 20
-315.3
 30
0.0
 40
1.0
100
AcDbArc
 50
90.0
 51
180.0
  0
ARC
  5
2A2
330
6F
100
AcDbEntity
  8
BLACK
100
AcDbCircle
 10
279.3
 20
-335.3
 30
0.0
 40
1.0
100
AcDbArc
 50
180.0
 51
270.0
  0
ARC
  5
2A7
330
6F
100
AcDbEntity
  8
BLACK
100
AcDbCircle
 10
103.3
 20
-293.3
 30
0.0
 40
1.0
100
AcDbArc
 50
180.0
 51
270.0
  0
LINE
  5
2A8
330
6F
100
AcDbEntity
  8
BLACK
  6
Continuous
100
AcDbLine
 10
123.3
 20
-291.3
 30
0.0
 11
103.3
 21
-291.3
 31
0.0
  0
ARC
  5
2A9
330
6F
100
AcDbEntity
  8
BLACK
100
AcDbCircle
 10
279.3
 20
-380.3
 30
0.0
 40
1.0
100
AcDbArc
 50
180.0
 51
270.0
  0
ARC
  5
2AA
330
6F
100
AcDbEntity
  8
BLACK
100
AcDbCircle
 10
123.3
 20
-292.3
 30
0.0
 40
1.0
100
AcDbArc
 50
0.0
 51
90.0
  0
LINE
  5
2AB
330
6F
100
AcDbEntity
  8
BLACK
  6
Continuous
100
AcDbLine
 10
278.3
 20
-380.3
 30
0.0
 11
278.3
 21
-360.3
 31
0.0
  0
LINE
  5
2AC
330
6F
100
AcDbEntity
  8
BLACK
  6
Continuous
100
AcDbLine
 10
102.3
 20
-292.3
 30
0.0
 11
102.3
 21
-293.3
 31
0.0
  0
LINE
  5
2AD
330
6F
100
AcDbEntity
  8
BLACK
  6
Continuous
100
AcDbLine
 10
123.3
 20
-294.3
 30
0.0
 11
103.3
 21
-294.3
 31
0.0
  0
ARC
  5
2AE
330
6F
100
AcDbEntity
  8
BLACK
100
AcDbCircle
 10
123.3
 20
-293.3
 30
0.0
 40
1.0
100
AcDbArc
 50
270.0
 51
0.0
  0
ARC
  5
2AF
330
6F
100
AcDbEntity
  8
BLACK
100
AcDbCircle
 10
279.3
 20
-360.3
 30
0.0
 40
1.0
100
AcDbArc
 50
90.0
 51
180.0
  0
LINE
  5
2B0
330
6F
100
AcDbEntity
  8
BLACK
  6
Continuous
100
AcDbLine
 10
279.3
 20
-359.3
 30
0.0
 11
280.3
 21
-359.3
 31
0.0
  0
LINE
  5
2B1
330
6F
100
AcDbEntity
  8
BLACK
  6
Continuous
100
AcDbLine
 10
278.3
 20
-288.3
 30
0.0
 11
82.3
 21
-288.3
 31
0.0
  0
ARC
  5
2B2
330
6F
100
AcDbEntity
  8
BLACK
100
AcDbCircle
 10
280.3
 20
-360.3
 30
0.0
 40
1.0
100
AcDbArc
 50
0.0
 51
90.0
  0
LINE
  5
2B3
330
6F
100
AcDbEntity
  8
BLACK
  6
Continuous
100
AcDbLine
 10
280.3
 20
-336.3
 30
0.0
 11
279.3
 21
-336.3
 31
0.0
  0
CIRCLE
  5
2B4
330
6F
100
AcDbEntity
  8
BLACK
100
AcDbCircle
 10
273.3
 20
-298.3
 30
0.0
 40
2.0
  0
CIRCLE
  5
2B5
330
6F
100
AcDbEntity
  8
BLACK
100
AcDbCircle
 10
273.3
 20
-394.3
 30
0.0
 40
2.0
  0
LINE
  5
2B6
330
6F
100
AcDbEntity
  8
BLACK
  6
Continuous
100
AcDbLine
 10
278.3
 20
-406.3
 30
0.0
 11
82.3
 21
-406.3
 31
0.0
  0
ARC
  5
2B7
330
6F
100
AcDbEntity
  8
BLACK
100
AcDbCircle
 10
258.3
 20
-293.3
 30
0.0
 40
1.0
100
AcDbArc
 50
270.0
 51
0.0
  0
LINE
  5
2B8
330
6F
100
AcDbEntity
  8
BLACK
  6
Continuous
100
AcDbLine
 10
214.3
 20
-292.3
 30
0.0
 11
214.3
 21
-293.3
 31
0.0
  0
LINE
  5
2B9
330
6F
100
AcDbEntity
  8
BLACK
  6
Continuous
100
AcDbLine
 10
278.3
 20
-335.3
 30
0.0
 11
278.3
 21
-315.3
 31
0.0
  0
ARC
  5
2BA
330
6F
100
AcDbEntity
  8
BLACK
100
AcDbCircle
 10
168.3
 20
-293.3
 30
0.0
 40
1.0
100
AcDbArc
 50
270.0
 51
0.0
  0
LINE
  5
2BB
330
6F
100
AcDbEntity
  8
BLACK
  6
Continuous
100
AcDbLine
 10
259.3
 20
-292.3
 30
0.0
 11
259.3
 21
-293.3
 31
0.0
  0
LINE
  5
2BC
330
6F
100
AcDbEntity
  8
BLACK
  6
Continuous
100
AcDbLine
 10
169.3
 20
-292.3
 30
0.0
 11
169.3
 21
-293.3
 31
0.0
  0
ARC
  5
2BD
330
6F
100
AcDbEntity
  8
BLACK
100
AcDbCircle
 10
213.3
 20
-293.3
 30
0.0
 40
1.0
100
AcDbArc
 50
270.0
 51
0.0
  0
LINE
  5
2BF
330
6F
100
AcDbEntity
  8
BLACK
  6
Continuous
100
AcDbLine
 10
76.29999999999999
 20
-400.3
 30
0.0
 11
76.29999999999999
 21
-294.3
 31
0.0
  0
LINE
  5
2C1
330
6F
100
AcDbEntity
  8
BLACK
  6
Continuous
100
AcDbLine
 10
284.3
 20
-294.3
 30
0.0
 11
284.3
 21
-400.3
 31
0.0
  0
LINE
  5
2C2
330
6F
100
AcDbEntity
  8
BLACK
  6
Continuous
100
AcDbLine
 10
123.3
 20
-404.3
 30
0.0
 11
103.3
 21
-404.3
 31
0.0
  0
ARC
  5
2C3
330
6F
100
AcDbEntity
  8
BLACK
100
AcDbCircle
 10
258.3
 20
-402.3
 30
0.0
 40
1.0
100
AcDbArc
 50
270.0
 51
0.0
  0
LINE
  5
2C4
330
6F
100
AcDbEntity
  8
BLACK
  6
Continuous
100
AcDbLine
 10
259.3
 20
-401.2999999999998
 30
0.0
 11
259.3
 21
-402.3
 31
0.0
  0
ARC
  5
2C5
330
6F
100
AcDbEntity
  8
BLACK
100
AcDbCircle
 10
258.3
 20
-401.2999999999998
 30
0.0
 40
1.0
100
AcDbArc
 50
0.0
 51
90.0
  0
ARC
  5
2C6
330
6F
100
AcDbEntity
  8
BLACK
100
AcDbCircle
 10
123.3
 20
-402.3
 30
0.0
 40
1.0
100
AcDbArc
 50
0.0
 51
90.0
  0
ARC
  5
2C7
330
6F
100
AcDbEntity
  8
BLACK
100
AcDbCircle
 10
213.3
 20
-401.2999999999998
 30
0.0
 40
1.0
100
AcDbArc
 50
0.0
 51
90.0
  0
LINE
  5
2C8
330
6F
100
AcDbEntity
  8
BLACK
  6
Continuous
100
AcDbLine
 10
168.3
 20
-403.3
 30
0.0
 11
148.3
 21
-403.3
 31
0.0
  0
LINE
  5
2C9
330
6F
100
AcDbEntity
  8
BLACK
  6
Continuous
100
AcDbLine
 10
258.3
 20
-400.3
 30
0.0
 11
238.3
 21
-400.3
 31
0.0
  0
ARC
  5
2CA
330
6F
100
AcDbEntity
  8
BLACK
100
AcDbCircle
 10
238.3
 20
-401.2999999999998
 30
0.0
 40
1.0
100
AcDbArc
 50
90.0
 51
180.0
  0
LINE
  5
2CB
330
6F
100
AcDbEntity
  8
BLACK
  6
Continuous
100
AcDbLine
 10
192.3
 20
-401.2999999999998
 30
0.0
 11
192.3
 21
-402.3
 31
0.0
  0
ARC
  5
2CC
330
6F
100
AcDbEntity
  8
BLACK
100
AcDbCircle
 10
213.3
 20
-402.3
 30
0.0
 40
1.0
100
AcDbArc
 50
270.0
 51
0.0
  0
ARC
  5
2CD
330
6F
100
AcDbEntity
  8
BLACK
100
AcDbCircle
 10
103.3
 20
-402.3
 30
0.0
 40
1.0
100
AcDbArc
 50
90.0
 51
180.0
  0
LINE
  5
2CE
330
6F
100
AcDbEntity
  8
BLACK
  6
Continuous
100
AcDbLine
 10
102.3
 20
-402.3
 30
0.0
 11
102.3
 21
-403.3
 31
0.0
  0
ARC
  5
2CF
330
6F
100
AcDbEntity
  8
BLACK
100
AcDbCircle
 10
103.3
 20
-403.3
 30
0.0
 40
1.0
100
AcDbArc
 50
180.0
 51
270.0
  0
LINE
  5
2D0
330
6F
100
AcDbEntity
  8
BLACK
  6
Continuous
100
AcDbLine
 10
124.3
 20
-402.3
 30
0.0
 11
124.3
 21
-403.3
 31
0.0
  0
LINE
  5
2D1
330
6F
100
AcDbEntity
  8
BLACK
  6
Continuous
100
AcDbLine
 10
213.3
 20
-403.3
 30
0.0
 11
193.3
 21
-403.3
 31
0.0
  0
ARC
  5
2D2
330
6F
100
AcDbEntity
  8
BLACK
100
AcDbCircle
 10
148.3
 20
-402.3
 30
0.0
 40
1.0
100
AcDbArc
 50
180.0
 51
270.0
  0
LINE
  5
2D3
330
6F
100
AcDbEntity
  8
BLACK
  6
Continuous
100
AcDbLine
 10
123.3
 20
-404.3
 30
0.0
 11
103.3
 21
-404.3
 31
0.0
  0
LINE
  5
2D4
330
6F
100
AcDbEntity
  8
BLACK
  6
Continuous
100
AcDbLine
 10
147.3
 20
-401.2999999999998
 30
0.0
 11
147.3
 21
-402.3
 31
0.0
  0
LINE
  5
2D5
330
6F
100
AcDbEntity
  8
BLACK
  6
Continuous
100
AcDbLine
 10
168.3
 20
-400.3
 30
0.0
 11
148.3
 21
-400.3
 31
0.0
  0
LINE
  5
2D6
330
6F
100
AcDbEntity
  8
BLACK
  6
Continuous
100
AcDbLine
 10
169.3
 20
-401.2999999999998
 30
0.0
 11
169.3
 21
-402.3
 31
0.0
  0
LINE
  5
2D7
330
6F
100
AcDbEntity
  8
BLACK
  6
Continuous
100
AcDbLine
 10
123.3
 20
-401.2999999999998
 30
0.0
 11
103.3
 21
-401.2999999999998
 31
0.0
  0
LINE
  5
2D8
330
6F
100
AcDbEntity
  8
BLACK
  6
Continuous
100
AcDbLine
 10
168.3
 20
-403.3
 30
0.0
 11
148.3
 21
-403.3
 31
0.0
  0
LINE
  5
2D9
330
6F
100
AcDbEntity
  8
BLACK
  6
Continuous
100
AcDbLine
 10
258.3
 20
-403.3
 30
0.0
 11
238.3
 21
-403.3
 31
0.0
  0
LINE
  5
2DA
330
6F
100
AcDbEntity
  8
BLACK
  6
Continuous
100
AcDbLine
 10
213.3
 20
-400.3
 30
0.0
 11
193.3
 21
-400.3
 31
0.0
  0
ARC
  5
2DB
330
6F
100
AcDbEntity
  8
BLACK
100
AcDbCircle
 10
238.3
 20
-402.3
 30
0.0
 40
1.0
100
AcDbArc
 50
180.0
 51
270.0
  0
LINE
  5
2DC
330
6F
100
AcDbEntity
  8
BLACK
  6
Continuous
100
AcDbLine
 10
168.3
 20
-400.3
 30
0.0
 11
148.3
 21
-400.3
 31
0.0
  0
LINE
  5
2DD
330
6F
100
AcDbEntity
  8
BLACK
  6
Continuous
100
AcDbLine
 10
81.3
 20
-381.3
 30
0.0
 11
80.29999999999999
 21
-381.3
 31
0.0
  0
ARC
  5
2DE
330
6F
100
AcDbEntity
  8
BLACK
100
AcDbCircle
 10
80.29999999999999
 20
-315.3
 30
0.0
 40
1.0
100
AcDbArc
 50
90.0
 51
180.0
  0
LINE
  5
2DF
330
6F
100
AcDbEntity
  8
BLACK
  6
Continuous
100
AcDbLine
 10
79.29999999999998
 20
-380.3
 30
0.0
 11
79.29999999999998
 21
-360.3
 31
0.0
  0
ARC
  5
2E0
330
6F
100
AcDbEntity
  8
BLACK
100
AcDbCircle
 10
168.3
 20
-402.3
 30
0.0
 40
1.0
100
AcDbArc
 50
270.0
 51
0.0
  0
LINE
  5
2E1
330
6F
100
AcDbEntity
  8
BLACK
  6
Continuous
100
AcDbLine
 10
82.3
 20
-380.3
 30
0.0
 11
82.3
 21
-360.3
 31
0.0
  0
ARC
  5
2E2
330
6F
100
AcDbEntity
  8
BLACK
100
AcDbCircle
 10
80.29999999999999
 20
-335.3
 30
0.0
 40
1.0
100
AcDbArc
 50
180.0
 51
270.0
  0
LINE
  5
2E3
330
6F
100
AcDbEntity
  8
BLACK
  6
Continuous
100
AcDbLine
 10
123.3
 20
-291.3
 30
0.0
 11
103.3
 21
-291.3
 31
0.0
  0
LINE
  5
2E4
330
6F
100
AcDbEntity
  8
BLACK
  6
Continuous
100
AcDbLine
 10
82.3
 20
-335.3
 30
0.0
 11
82.3
 21
-315.3
 31
0.0
  0
CIRCLE
  5
2E5
330
6F
100
AcDbEntity
  8
BLACK
100
AcDbCircle
 10
87.3
 20
-394.3
 30
0.0
 40
2.0
  0
LINE
  5
2E6
330
6F
100
AcDbEntity
  8
BLACK
  6
Continuous
100
AcDbLine
 10
79.29999999999998
 20
-335.3
 30
0.0
 11
79.29999999999998
 21
-315.3
 31
0.0
  0
ARC
  5
2E7
330
6F
100
AcDbEntity
  8
BLACK
100
AcDbCircle
 10
80.29999999999999
 20
-360.3
 30
0.0
 40
1.0
100
AcDbArc
 50
90.0
 51
180.0
  0
LINE
  5
2E8
330
6F
100
AcDbEntity
  8
BLACK
  6
Continuous
100
AcDbLine
 10
123.3
 20
-404.3
 30
0.0
 11
103.3
 21
-404.3
 31
0.0
  0
CIRCLE
  5
2E9
330
6F
100
AcDbEntity
  8
BLACK
100
AcDbCircle
 10
87.3
 20
-300.3
 30
0.0
 40
2.0
  0
ARC
  5
2EA
330
6F
100
AcDbEntity
  8
BLACK
100
AcDbCircle
 10
81.3
 20
-380.3
 30
0.0
 40
1.0
100
AcDbArc
 50
270.0
 51
0.0
  0
ARC
  5
2EB
330
6F
100
AcDbEntity
  8
BLACK
100
AcDbCircle
 10
80.29999999999999
 20
-380.3
 30
0.0
 40
1.0
100
AcDbArc
 50
180.0
 51
270.0
  0
ARC
  5
33E
330
6F
100
AcDbEntity
  8
BLACK
100
AcDbCircle
 10
247.2099929076746
 20
-82.25693676029136
 30
0.0
 40
1.000007092350625
100
AcDbArc
 50
270.0004063574306
 51
359.9995936425662
  0
LINE
  5
3A0
330
6F
100
AcDbEntity
  8
0
  6
Continuous
100
AcDbLine
 10
145.21
 20
-83.25694385261686
 30
0.0
 11
158.21
 21
-83.25694385261686
 31
0.0
  0
LINE
  5
3A7
330
6F
100
AcDbEntity
  8
BLACK
  6
Continuous
100
AcDbLine
 10
159.4167073534053
 20
-82.31836266280222
 30
0.0
 11
159.4167073534053
 21
-77.81836266280224
 31
0.0
  0
ARC
  5
3A8
330
6F
100
AcDbEntity
  8
0
  6
Continuous
100
AcDbCircle
 10
157.9990006186949
 20
-78.21347614113334
 30
0.0
 40
1.471736065469043
100
AcDbArc
 50
15.57310162631809
 51
81.75723359565017
  0
ARC
  5
3B2
330
6F
100
AcDbEntity
  8
0
  6
Continuous
100
AcDbCircle
 10
158.3670669243639
 20
-82.21387497233726
 30
0.0
 40
1.054828283530989
100
AcDbArc
 50
261.4366502592704
 51
354.3151527926891
  0
LINE
  5
3C6
330
6F
100
AcDbEntity
  8
BLACK
  6
Continuous
100
AcDbLine
 10
190.2998838745578
 20
-82.25689859645973
 30
0.0
 11
190.2998838745578
 21
-67.75688816834108
 31
0.0
  0
ARC
  5
3C7
330
6F
100
AcDbEntity
  8
BLACK
100
AcDbCircle
 10
191.3000427253506
 20
-67.75377111685539
 30
0.0
 40
1.000163708014444
100
AcDbArc
 50
94.68128189292235
 51
180.1785649512521
  0
ARC
  5
3C8
330
6F
100
AcDbEntity
  8
0
  6
Continuous
100
AcDbCircle
 10
191.306914610652
 20
-82.25458462120538
 30
0.0
 40
1.007033394639879
100
AcDbArc
 50
180.1316551500159
 51
264.4774995944519
  0
LINE
  5
3D6
330
6F
100
AcDbEntity
  8
BLACK
  6
Continuous
100
AcDbLine
 10
169.2691903587471
 20
-83.25227169928453
 30
0.0
 11
183.2691892617247
 21
-83.25227169928453
 31
0.0
  0
LINE
  5
3D7
330
6F
100
AcDbEntity
  8
BLACK
  6
Continuous
100
AcDbLine
 10
169.2691892617246
 20
-66.75227169928453
 30
0.0
 11
183.2691892617247
 21
-66.75227169928453
 31
0.0
  0
LINE
  5
3D8
330
6F
100
AcDbEntity
  8
BLACK
  6
Continuous
100
AcDbLine
 10
184.2691892617247
 20
-67.75227169928453
 30
0.0
 11
184.2691892617247
 21
-82.25227169928455
 31
0.0
  0
ARC
  5
3D9
330
6F
100
AcDbEntity
  8
BLACK
100
AcDbCircle
 10
183.2691892617247
 20
-82.25227169928455
 30
0.0
 40
1.0
100
AcDbArc
 50
270.0
 51
0.0
  0
ARC
  5
3DA
330
6F
100
AcDbEntity
  8
BLACK
100
AcDbCircle
 10
183.2691892617247
 20
-67.75227169928453
 30
0.0
 40
1.0
100
AcDbArc
 50
0.0
 51
90.0
  0
LINE
  5
3DB
330
6F
100
AcDbEntity
  8
BLACK
  6
Continuous
100
AcDbLine
 10
168.3590731362825
 20
-82.2522264431274
 30
0.0
 11
168.3590731362825
 21
-67.75221601500875
 31
0.0
  0
ARC
  5
3DC
330
6F
100
AcDbEntity
  8
BLACK
100
AcDbCircle
 10
169.3592319870753
 20
-67.74909896352304
 30
0.0
 40
1.000163708014444
100
AcDbArc
 50
94.68128189292194
 51
180.1785649512521
  0
ARC
  5
3DD
330
6F
100
AcDbEntity
  8
0
  6
Continuous
100
AcDbCircle
 10
169.3661038723766
 20
-82.24991246787304
 30
0.0
 40
1.007033394639879
100
AcDbArc
 50
180.1316551500156
 51
264.477499594452
  0
LWPOLYLINE
  5
436
330
6F
100
AcDbEntity
  8
0
  6
Continuous
100
AcDbPolyline
 90
        4
 70
     1
 43
0.0
 10
162.7882758272981
 20
-80.63782311360528
 10
166.5250195886724
 20
-80.63782311360528
 10
166.5250195886724
 20
-82.91405928714516
 10
162.7882758272981
 20
-82.91405928714516
  0
LWPOLYLINE
  5
43C
330
6F
100
AcDbEntity
  8
0
  6
Continuous
100
AcDbPolyline
 90
        4
 70
     1
 43
0.0
 10
185.4057162371618
 20
-80.6378231136046
 10
189.1424599985362
 20
-80.6378231136046
 10
189.1424599985362
 20
-82.91405928714448
 10
185.4057162371618
 20
-82.91405928714448
  0
CIRCLE
  5
451
330
6F
100
AcDbEntity
  8
BLACK
100
AcDbCircle
 10
156.4679964216305
 20
-299.6120585315342
 30
0.0
 40
1.581139999999999
  0
CIRCLE
  5
457
330
6F
100
AcDbEntity
  8
BLACK
100
AcDbCircle
 10
200.9179964216305
 20
-299.6120564856902
 30
0.0
 40
1.581139999999999
  0
CIRCLE
  5
467
330
6F
100
AcDbEntity
  8
BLACK
100
AcDbCircle
 10
156.2753515806133
 20
-394.8120585315341
 30
0.0
 40
1.581139999999999
  0
CIRCLE
  5
4A1
330
6F
100
AcDbEntity
  8
BLACK
100
AcDbCircle
 10
200.7253515806133
 20
-394.8120564856901
 30
0.0
 40
1.581139999999999
  0
CIRCLE
  5
4C3
330
6F
100
AcDbEntity
  8
BLACK
100
AcDbCircle
 10
273.2999955084295
 20
-109.3000010903423
 30
0.0
 40
2.0
  0
CIRCLE
  5
4CA
330
6F
100
AcDbEntity
  8
BLACK
100
AcDbCircle
 10
273.3000488213433
 20
-203.3000010903423
 30
0.0
 40
2.0
  0
LINE
  5
52B
330
6F
100
AcDbEntity
  8
BLACK
  6
Continuous
100
AcDbLine
 10
211.9104212377933
 20
-82.25105528705176
 30
0.0
 11
211.9104212377933
 21
-69.25105528705174
 31
0.0
  0
LINE
  5
52C
330
6F
100
AcDbEntity
  8
BLACK
  6
Continuous
100
AcDbLine
 10
228.4104212377933
 20
-69.25105528705174
 30
0.0
 11
228.4104212377933
 21
-82.25105528705176
 31
0.0
  0
LINE
  5
52D
330
6F
100
AcDbEntity
  8
BLACK
  6
Continuous
100
AcDbLine
 10
212.9104212377933
 20
-83.25105528705176
 30
0.0
 11
227.4104212377933
 21
-83.25105528705176
 31
0.0
  0
LINE
  5
52E
330
6F
100
AcDbEntity
  8
BLACK
  6
Continuous
100
AcDbLine
 10
212.9104212377933
 20
-68.48322088793252
 30
0.0
 11
227.4104212377933
 21
-68.48322088793252
 31
0.0
  0
ARC
  5
52F
330
6F
100
AcDbEntity
  8
BLACK
100
AcDbCircle
 10
212.9104212377933
 20
-82.25105528705176
 30
0.0
 40
1.0
100
AcDbArc
 50
180.0
 51
270.0
  0
ARC
  5
530
330
6F
100
AcDbEntity
  8
BLACK
100
AcDbCircle
 10
212.9104212377933
 20
-69.48322088793251
 30
0.0
 40
1.0
100
AcDbArc
 50
90.0
 51
180.0
  0
ARC
  5
531
330
6F
100
AcDbEntity
  8
BLACK
100
AcDbCircle
 10
227.4104212377933
 20
-69.48322088793251
 30
0.0
 40
1.0
100
AcDbArc
 50
0.0
 51
90.0
  0
ARC
  5
532
330
6F
100
AcDbEntity
  8
BLACK
100
AcDbCircle
 10
227.4104141454679
 20
-82.25104819472624
 30
0.0
 40
1.000007092350625
100
AcDbArc
 50
270.0004063574303
 51
359.9995936425665
  0
ENDSEC
  0
SECTION
  2
OBJECTS
  0
DICTIONARY
  5
C
330
0
100
AcDbDictionary
281
     1
  3
ACAD_CIP_PREVIOUS_PRODUCT_INFO
350
2F1
  3
ACAD_COLOR
350
62
  3
ACAD_DETAILVIEWSTYLE
350
69
  3
ACAD_GROUP
350
D
  3
ACAD_LAYOUT
350
61
  3
ACAD_MATERIAL
350
10
  3
ACAD_MLEADERSTYLE
350
65
  3
ACAD_MLINESTYLE
350
5E
  3
ACAD_PLOTSETTINGS
350
60
  3
ACAD_PLOTSTYLENAME
350
E
  3
ACAD_SCALELIST
350
42
  3
ACAD_SECTIONVIEWSTYLE
350
67
  3
ACAD_TABLESTYLE
350
63
  3
ACAD_VISUALSTYLE
350
29
  3
ACDB_RECOMPOSE_DATA
350
53D
  3
AcDbVariableDictionary
350
369
  0
DICTIONARY
  5
38E
330
2
100
AcDbDictionary
280
     1
281
     1
  3
ACAD_LAYERSTATES
360
38F
  0
DICTIONARY
  5
387
330
54
100
AcDbDictionary
280
     1
281
     1
  3
ADSK_XREC_LAYER_RECONCILED
360
388
  0
DICTIONARY
  5
389
330
7A
100
AcDbDictionary
280
     1
281
     1
  3
ADSK_XREC_LAYER_RECONCILED
360
38A
  0
DICTIONARY
  5
480
330
6F
100
AcDbDictionary
280
     1
281
     1
  0
XRECORD
  5
2F1
102
{ACAD_REACTORS
330
C
102
}
330
C
100
AcDbXrecord
280
     1
300
ACD
300
2016
300
ACD_F_S
  0
DICTIONARY
  5
62
102
{ACAD_REACTORS
330
C
102
}
330
C
100
AcDbDictionary
281
     1
  0
DICTIONARY
  5
69
102
{ACAD_REACTORS
330
C
102
}
330
C
100
AcDbDictionary
281
     1
  3
Imperial24
350
6A
  3
Metric50
350
2EF
  0
DICTIONARY
  5
D
102
{ACAD_REACTORS
330
C
102
}
330
C
100
AcDbDictionary
281
     1
  0
DICTIONARY
  5
61
102
{ACAD_REACTORS
330
C
102
}
330
C
100
AcDbDictionary
281
     1
  3
Model
350
72
  3
布局1
350
6E
  0
DICTIONARY
  5
10
102
{ACAD_REACTORS
330
C
102
}
330
C
100
AcDbDictionary
281
     1
  3
ByBlock
350
19
  3
ByLayer
350
11
  3
Global
350
21
  0
DICTIONARY
  5
65
102
{ACAD_REACTORS
330
C
102
}
330
C
100
AcDbDictionary
281
     1
  3
Standard
350
66
  0
DICTIONARY
  5
5E
102
{ACAD_REACTORS
330
C
102
}
330
C
100
AcDbDictionary
281
     1
  3
Standard
350
5F
  0
DICTIONARY
  5
60
102
{ACAD_REACTORS
330
C
102
}
330
C
100
AcDbDictionary
281
     1
  0
ACDBDICTIONARYWDFLT
  5
E
102
{ACAD_REACTORS
330
C
102
}
330
C
100
AcDbDictionary
281
     1
  3
Normal
350
F
100
AcDbDictionaryWithDefault
340
F
  0
DICTIONARY
  5
42
102
{ACAD_REACTORS
330
C
102
}
330
C
100
AcDbDictionary
281
     1
  3
A0
350
43
  3
A1
350
44
  3
A2
350
45
  3
A3
350
46
  3
A4
350
47
  3
A5
350
48
  3
A6
350
49
  3
A7
350
4A
  3
A8
350
4B
  3
A9
350
4C
  3
B0
350
4D
  3
B1
350
4E
  3
B2
350
4F
  3
B3
350
50
  3
B4
350
51
  3
B5
350
52
  3
B6
350
53
  0
DICTIONARY
  5
67
102
{ACAD_REACTORS
330
C
102
}
330
C
100
AcDbDictionary
281
     1
  3
Imperial24
350
68
  3
Metric50
350
2EE
  0
DICTIONARY
  5
63
102
{ACAD_REACTORS
330
C
102
}
330
C
100
AcDbDictionary
281
     1
  3
Standard
350
64
  0
DICTIONARY
  5
29
102
{ACAD_REACTORS
330
C
102
}
330
C
100
AcDbDictionary
281
     1
  3
2dWireframe
350
2F
  3
Basic
350
2E
  3
Brighten
350
35
  3
ColorChange
350
39
  3
Conceptual
350
32
  3
Dim
350
34
  3
EdgeColorOff
350
41
  3
Facepattern
350
38
  3
Flat
350
2A
  3
FlatWithEdges
350
2B
  3
Gouraud
350
2C
  3
GouraudWithEdges
350
2D
  3
Hidden
350
31
  3
JitterOff
350
3F
  3
Linepattern
350
37
  3
OverhangOff
350
40
  3
Realistic
350
33
  3
Shaded
350
3E
  3
Shaded with edges
350
3D
  3
Shades of Gray
350
3A
  3
Sketchy
350
3B
  3
Thicken
350
36
  3
Wireframe
350
30
  3
X-Ray
350
3C
  0
XRECORD
  5
53D
102
{ACAD_REACTORS
330
C
102
}
330
C
100
AcDbXrecord
280
     1
 90
        1
330
64
  0
DICTIONARY
  5
369
102
{ACAD_REACTORS
330
C
102
}
330
C
100
AcDbDictionary
281
     1
  3
CANNOSCALE
350
36F
  3
CMLEADERSTYLE
350
36B
  3
CTABLESTYLE
350
36A
  3
CVIEWDETAILSTYLE
350
36C
  3
CVIEWSECTIONSTYLE
350
36D
  3
LAYEREVAL
350
371
  3
LAYERNOTIFY
350
372
  3
LIGHTINGUNITS
350
370
  3
MSLTSCALE
350
36E
  0
DICTIONARY
  5
38F
102
{ACAD_REACTORS
330
38E
102
}
330
38E
100
AcDbDictionary
281
     1
  0
XRECORD
  5
388
102
{ACAD_REACTORS
330
387
102
}
330
387
100
AcDbXrecord
280
     1
290
     1
  0
XRECORD
  5
38A
102
{ACAD_REACTORS
330
389
102
}
330
389
100
AcDbXrecord
280
     1
290
     1
  0
ACDBDETAILVIEWSTYLE
  5
6A
102
{ACAD_XDICTIONARY
360
570
102
}
102
{ACAD_REACTORS
330
69
102
}
330
69
100
AcDbModelDocViewStyle
 70
     0
  3
Imperial24
290
     0
100
AcDbDetailViewStyle
 70
     0
 71
     0
 90
        3
 71
     1
340
55
 62
   256
 40
0.24
340
0
 62
   256
 40
0.24
300

 40
0.36
280
     3
 71
     2
340
5C
 90
       25
 62
   256
 71
     3
340
55
 62
   256
 40
0.24
 90
        1
 40
0.75
 90
        1
300
%<\AcVar ViewType \f "%tc1">% %<\AcVar ViewDetailId>%\PSCALE %<\AcVar ViewScale \f "%sn">%
 71
     4
340
5C
 90
       25
 62
   256
340
5C
 90
       25
 62
   256
280
     0
  0
ACDBDETAILVIEWSTYLE
  5
2EF
102
{ACAD_XDICTIONARY
360
574
102
}
102
{ACAD_REACTORS
330
69
102
}
330
69
100
AcDbModelDocViewStyle
 70
     0
  3
Metric50
290
     0
100
AcDbDetailViewStyle
 70
     0
 71
     0
 90
        3
 71
     1
340
55
 62
   256
 40
5.0
340
0
 62
   256
 40
5.0
300

 40
0.0
280
     1
 71
     2
340
5C
 90
       25
 62
   256
 71
     3
340
55
 62
   256
 40
5.0
 90
        0
 40
15.0
 90
        1
300
%<\AcVar ViewDetailId>% (%<\AcVar ViewScale \f "%sn">%)
 71
     4
340
5C
 90
       25
 62
   256
340
5C
 90
       25
 62
   256
280
     0
  0
LAYOUT
  5
72
102
{ACAD_REACTORS
330
61
102
}
330
61
100
AcDbPlotSettings
  1

  2
Canon TS6000 series
  4

  6

 40
0.0
 41
0.0
 42
0.0
 43
0.0
 44
0.0
 45
0.0
 46
0.0
 47
0.0
 48
0.0
 49
0.0
140
0.0
141
0.0
142
1.0
143
1.0
 70
  1712
 72
     0
 73
     0
 74
     0
  7

 75
     0
147
1.0
 76
     0
 77
     2
 78
   300
148
0.0
149
0.0
100
AcDbLayout
  1
Model
 70
     1
 71
     0
 10
0.0
 20
0.0
 11
12.0
 21
9.0
 12
0.0
 22
0.0
 32
0.0
 14
0.0
 24
0.0
 34
0.0
 15
0.0
 25
0.0
 35
0.0
146
0.0
 13
0.0
 23
0.0
 33
0.0
 16
1.0
 26
0.0
 36
0.0
 17
0.0
 27
1.0
 37
0.0
 76
     0
330
6F
331
7D
  0
LAYOUT
  5
6E
102
{ACAD_REACTORS
330
61
102
}
330
61
100
AcDbPlotSettings
  1

  2
Canon TS6000 series
  4

  6

 40
0.0
 41
0.0
 42
0.0
 43
0.0
 44
0.0
 45
0.0
 46
0.0
 47
0.0
 48
0.0
 49
0.0
140
0.0
141
0.0
142
1.0
143
1.0
 70
   688
 72
     0
 73
     0
 74
     5
  7

 75
    16
147
1.0
 76
     0
 77
     2
 78
   300
148
0.0
149
0.0
100
AcDbLayout
  1
布局1
 70
     1
 71
     1
 10
0.0
 20
0.0
 11
12.0
 21
9.0
 12
0.0
 22
0.0
 32
0.0
 14
1.000000000000000E+20
 24
1.000000000000000E+20
 34
1.000000000000000E+20
 15
-1.000000000000000E+20
 25
-1.000000000000000E+20
 35
-1.000000000000000E+20
146
0.0
 13
0.0
 23
0.0
 33
0.0
 16
1.0
 26
0.0
 36
0.0
 17
0.0
 27
1.0
 37
0.0
 76
     0
330
6B
  0
MATERIAL
  5
19
102
{ACAD_XDICTIONARY
360
1A
102
}
102
{ACAD_REACTORS
330
10
102
}
330
10
100
AcDbMaterial
  1
ByBlock
 72
     0
 43
0.0208333333333333
 43
0.0
 43
0.0
 43
0.0
 43
0.0
 43
0.0208333333333333
 43
0.0
 43
0.0
 43
0.0
 43
0.0
 43
1.0
 43
0.0
 43
0.0
 43
0.0
 43
0.0
 43
1.0
 77
     0
 47
0.0208333333333333
 47
0.0
 47
0.0
 47
0.0
 47
0.0
 47
0.0208333333333333
 47
0.0
 47
0.0
 47
0.0
 47
0.0
 47
1.0
 47
0.0
 47
0.0
 47
0.0
 47
0.0
 47
1.0
171
     0
 49
0.0208333333333333
 49
0.0
 49
0.0
 49
0.0
 49
0.0
 49
0.0208333333333333
 49
0.0
 49
0.0
 49
0.0
 49
0.0
 49
1.0
 49
0.0
 49
0.0
 49
0.0
 49
0.0
 49
1.0
175
     0
142
0.0208333333333333
142
0.0
142
0.0
142
0.0
142
0.0
142
0.0208333333333333
142
0.0
142
0.0
142
0.0
142
0.0
142
1.0
142
0.0
142
0.0
142
0.0
142
0.0
142
1.0
179
     0
144
0.0208333333333333
144
0.0
144
0.0
144
0.0
144
0.0
144
0.0208333333333333
144
0.0
144
0.0
144
0.0
144
0.0
144
1.0
144
0.0
144
0.0
144
0.0
144
0.0
144
1.0
147
0.0208333333333333
147
0.0
147
0.0
147
0.0
147
0.0
147
0.0208333333333333
147
0.0
147
0.0
147
0.0
147
0.0
147
1.0
147
0.0
147
0.0
147
0.0
147
0.0
147
1.0
  0
MATERIAL
  5
11
102
{ACAD_XDICTIONARY
360
12
102
}
102
{ACAD_REACTORS
330
10
102
}
330
10
100
AcDbMaterial
  1
ByLayer
 72
     0
 43
0.0208333333333333
 43
0.0
 43
0.0
 43
0.0
 43
0.0
 43
0.0208333333333333
 43
0.0
 43
0.0
 43
0.0
 43
0.0
 43
1.0
 43
0.0
 43
0.0
 43
0.0
 43
0.0
 43
1.0
 77
     0
 47
0.0208333333333333
 47
0.0
 47
0.0
 47
0.0
 47
0.0
 47
0.0208333333333333
 47
0.0
 47
0.0
 47
0.0
 47
0.0
 47
1.0
 47
0.0
 47
0.0
 47
0.0
 47
0.0
 47
1.0
171
     0
 49
0.0208333333333333
 49
0.0
 49
0.0
 49
0.0
 49
0.0
 49
0.0208333333333333
 49
0.0
 49
0.0
 49
0.0
 49
0.0
 49
1.0
 49
0.0
 49
0.0
 49
0.0
 49
0.0
 49
1.0
175
     0
142
0.0208333333333333
142
0.0
142
0.0
142
0.0
142
0.0
142
0.0208333333333333
142
0.0
142
0.0
142
0.0
142
0.0
142
1.0
142
0.0
142
0.0
142
0.0
142
0.0
142
1.0
179
     0
144
0.0208333333333333
144
0.0
144
0.0
144
0.0
144
0.0
144
0.0208333333333333
144
0.0
144
0.0
144
0.0
144
0.0
144
1.0
144
0.0
144
0.0
144
0.0
144
0.0
144
1.0
147
0.0208333333333333
147
0.0
147
0.0
147
0.0
147
0.0
147
0.0208333333333333
147
0.0
147
0.0
147
0.0
147
0.0
147
1.0
147
0.0
147
0.0
147
0.0
147
0.0
147
1.0
  0
MATERIAL
  5
21
102
{ACAD_XDICTIONARY
360
22
102
}
102
{ACAD_REACTORS
330
10
102
}
330
10
100
AcDbMaterial
  1
Global
 72
     0
 43
0.0208333333333333
 43
0.0
 43
0.0
 43
0.0
 43
0.0
 43
0.0208333333333333
 43
0.0
 43
0.0
 43
0.0
 43
0.0
 43
1.0
 43
0.0
 43
0.0
 43
0.0
 43
0.0
 43
1.0
 77
     0
 47
0.0208333333333333
 47
0.0
 47
0.0
 47
0.0
 47
0.0
 47
0.0208333333333333
 47
0.0
 47
0.0
 47
0.0
 47
0.0
 47
1.0
 47
0.0
 47
0.0
 47
0.0
 47
0.0
 47
1.0
171
     0
 49
0.0208333333333333
 49
0.0
 49
0.0
 49
0.0
 49
0.0
 49
0.0208333333333333
 49
0.0
 49
0.0
 49
0.0
 49
0.0
 49
1.0
 49
0.0
 49
0.0
 49
0.0
 49
0.0
 49
1.0
175
     0
142
0.0208333333333333
142
0.0
142
0.0
142
0.0
142
0.0
142
0.0208333333333333
142
0.0
142
0.0
142
0.0
142
0.0
142
1.0
142
0.0
142
0.0
142
0.0
142
0.0
142
1.0
179
     0
144
0.0208333333333333
144
0.0
144
0.0
144
0.0
144
0.0
144
0.0208333333333333
144
0.0
144
0.0
144
0.0
144
0.0
144
1.0
144
0.0
144
0.0
144
0.0
144
0.0
144
1.0
147
0.0208333333333333
147
0.0
147
0.0
147
0.0
147
0.0
147
0.0208333333333333
147
0.0
147
0.0
147
0.0
147
0.0
147
1.0
147
0.0
147
0.0
147
0.0
147
0.0
147
1.0
  0
MLEADERSTYLE
  5
66
102
{ACAD_REACTORS
330
65
102
}
330
65
100
AcDbMLeaderStyle
179
     2
170
     2
171
     1
172
     0
 90
        2
 40
0.0
 41
0.0
173
     1
 91
-1056964608
340
5A
 92
       -2
290
     1
 42
0.09
291
     1
 43
0.36
  3
Standard
 44
0.18
300

342
55
174
     1
178
     6
175
     1
176
     0
 93
-1056964608
 45
0.18
292
     0
297
     0
 46
0.18
 94
-1056964608
 47
1.0
 49
1.0
140
1.0
293
     1
141
0.0
294
     1
177
     0
142
1.0
295
     0
296
     0
143
0.125
271
     0
272
     9
273
     9
  0
MLINESTYLE
  5
5F
102
{ACAD_REACTORS
330
5E
102
}
330
5E
100
AcDbMlineStyle
  2
STANDARD
 70
     0
  3

 62
   256
 51
90.0
 52
90.0
 71
     2
 49
0.5
 62
   256
  6
BYLAYER
 49
-0.5
 62
   256
  6
BYLAYER
  0
ACDBPLACEHOLDER
  5
F
102
{ACAD_REACTORS
330
E
102
}
330
E
  0
SCALE
  5
43
102
{ACAD_REACTORS
330
42
102
}
330
42
100
AcDbScale
 70
     0
300
1:1
140
1.0
141
1.0
290
     1
  0
SCALE
  5
44
102
{ACAD_REACTORS
330
42
102
}
330
42
100
AcDbScale
 70
     0
300
1/128" = 1'-0"
140
0.0078125
141
12.0
290
     0
  0
SCALE
  5
45
102
{ACAD_REACTORS
330
42
102
}
330
42
100
AcDbScale
 70
     0
300
1/64" = 1'-0"
140
0.015625
141
12.0
290
     0
  0
SCALE
  5
46
102
{ACAD_REACTORS
330
42
102
}
330
42
100
AcDbScale
 70
     0
300
1/32" = 1'-0"
140
0.03125
141
12.0
290
     0
  0
SCALE
  5
47
102
{ACAD_REACTORS
330
42
102
}
330
42
100
AcDbScale
 70
     0
300
1/16" = 1'-0"
140
0.0625
141
12.0
290
     0
  0
SCALE
  5
48
102
{ACAD_REACTORS
330
42
102
}
330
42
100
AcDbScale
 70
     0
300
3/32" = 1'-0"
140
0.09375
141
12.0
290
     0
  0
SCALE
  5
49
102
{ACAD_REACTORS
330
42
102
}
330
42
100
AcDbScale
 70
     0
300
1/8" = 1'-0"
140
0.125
141
12.0
290
     0
  0
SCALE
  5
4A
102
{ACAD_REACTORS
330
42
102
}
330
42
100
AcDbScale
 70
     0
300
3/16" = 1'-0"
140
0.1875
141
12.0
290
     0
  0
SCALE
  5
4B
102
{ACAD_REACTORS
330
42
102
}
330
42
100
AcDbScale
 70
     0
300
1/4" = 1'-0"
140
0.25
141
12.0
290
     0
  0
SCALE
  5
4C
102
{ACAD_REACTORS
330
42
102
}
330
42
100
AcDbScale
 70
     0
300
3/8" = 1'-0"
140
0.375
141
12.0
290
     0
  0
SCALE
  5
4D
102
{ACAD_REACTORS
330
42
102
}
330
42
100
AcDbScale
 70
     0
300
1/2" = 1'-0"
140
0.5
141
12.0
290
     0
  0
SCALE
  5
4E
102
{ACAD_REACTORS
330
42
102
}
330
42
100
AcDbScale
 70
     0
300
3/4" = 1'-0"
140
0.75
141
12.0
290
     0
  0
SCALE
  5
4F
102
{ACAD_REACTORS
330
42
102
}
330
42
100
AcDbScale
 70
     0
300
1" = 1'-0"
140
1.0
141
12.0
290
     0
  0
SCALE
  5
50
102
{ACAD_REACTORS
330
42
102
}
330
42
100
AcDbScale
 70
     0
300
1-1/2" = 1'-0"
140
1.5
141
12.0
290
     0
  0
SCALE
  5
51
102
{ACAD_REACTORS
330
42
102
}
330
42
100
AcDbScale
 70
     0
300
3" = 1'-0"
140
3.0
141
12.0
290
     0
  0
SCALE
  5
52
102
{ACAD_REACTORS
330
42
102
}
330
42
100
AcDbScale
 70
     0
300
6" = 1'-0"
140
6.0
141
12.0
290
     0
  0
SCALE
  5
53
102
{ACAD_REACTORS
330
42
102
}
330
42
100
AcDbScale
 70
     0
300
1'-0" = 1'-0"
140
12.0
141
12.0
290
     0
  0
ACDBSECTIONVIEWSTYLE
  5
68
102
{ACAD_XDICTIONARY
360
56E
102
}
102
{ACAD_REACTORS
330
67
102
}
330
67
100
AcDbModelDocViewStyle
 70
     0
  3
Imperial24
290
     0
100
AcDbSectionViewStyle
 70
     0
 71
     0
 90
       78
 71
     1
340
55
 62
   256
 40
0.24
340
0
340
0
 62
   256
 40
0.24
300
I, O, Q, S, X, Z
 40
0.48
 90
        3
 40
0.18
 90
        1
 71
     2
340
5C
 90
       25
 62
   256
340
5C
 90
       50
 62
   256
 40
0.24
 40
0.0
 40
0.24
 71
     3
340
55
 62
   256
 40
0.24
 90
        1
 40
0.75
 90
        1
300
%<\AcVar ViewType \f "%tc1">% %<\AcVar ViewSectionStartId>%-%<\AcVar ViewSectionEndId>%\PSCALE %<\AcVar ViewScale \f "%sn">%
 71
     4
 62
   256
 62
   257
300
ANSI31
 40
1.0
 90
        0
290
     0
290
     0
 90
        6
 40
0.0
 40
1.570796326794896
 40
0.2617993877991494
 40
1.308996938995747
 40
-0.2617993877991494
 40
1.832595714594044
  0
ACDBSECTIONVIEWSTYLE
  5
2EE
102
{ACAD_XDICTIONARY
360
572
102
}
102
{ACAD_REACTORS
330
67
102
}
330
67
100
AcDbModelDocViewStyle
 70
     0
  3
Metric50
290
     0
100
AcDbSectionViewStyle
 70
     0
 71
     0
 90
      102
 71
     1
340
55
 62
   256
 40
5.0
340
0
340
0
 62
   256
 40
5.0
300
I, O, Q, S, X, Z
 40
10.0
 90
        0
 40
2.5
 90
        0
 71
     2
340
5C
 90
       25
 62
   256
340
5C
 90
       50
 62
   256
 40
5.0
 40
2.5
 40
5.0
 71
     3
340
55
 62
   256
 40
5.0
 90
        0
 40
15.0
 90
        1
300
%<\AcVar ViewSectionStartId>%-%<\AcVar ViewSectionEndId>% (%<\AcVar ViewScale \f "%sn">%)
 71
     4
 62
   256
 62
   257
300
ANSI31
 40
1.0
 90
        0
290
     0
290
     0
 90
        6
 40
0.0
 40
1.570796326794896
 40
0.2617993877991494
 40
1.308996938995747
 40
-0.2617993877991494
 40
1.832595714594044
  0
TABLESTYLE
  5
64
102
{ACAD_XDICTIONARY
360
3F4
102
}
102
{ACAD_REACTORS
330
63
102
}
330
63
100
AcDbTableStyle
280
     0
  3
Standard
 70
     0
 71
     0
 40
0.06
 41
0.06
280
     0
281
     0
  7
Standard
140
0.18
170
     2
 62
     0
 63
     7
283
     0
 90
      512
 91
        0
  1

274
    -2
284
     1
 64
     0
275
    -2
285
     1
 65
     0
276
    -2
286
     1
 66
     0
277
    -2
287
     1
 67
     0
278
    -2
288
     1
 68
     0
279
    -2
289
     1
 69
     0
  7
Standard
140
0.25
170
     5
 62
     0
 63
     7
283
     0
 90
      512
 91
        0
  1

274
    -2
284
     1
 64
     0
275
    -2
285
     1
 65
     0
276
    -2
286
     1
 66
     0
277
    -2
287
     1
 67
     0
278
    -2
288
     1
 68
     0
279
    -2
289
     1
 69
     0
  7
Standard
140
0.18
170
     5
 62
     0
 63
     7
283
     0
 90
      512
 91
        0
  1

274
    -2
284
     1
 64
     0
275
    -2
285
     1
 65
     0
276
    -2
286
     1
 66
     0
277
    -2
287
     1
 67
     0
278
    -2
288
     1
 68
     0
279
    -2
289
     1
 69
     0
  0
VISUALSTYLE
  5
2F
102
{ACAD_XDICTIONARY
360
548
102
}
102
{ACAD_REACTORS
330
29
102
}
330
29
100
AcDbVisualStyle
  2
2dWireframe
 70
     4
177
     2
291
     0
 71
     0
176
     1
 72
     2
176
     1
 73
     0
176
     1
 90
        0
176
     1
 40
0.6
176
     1
 41
30.0
176
     1
 63
     7
421
 16777215
176
     1
 74
     1
176
     1
 91
        4
176
     1
 64
     7
176
     1
 65
   257
176
     1
 75
     1
176
     1
175
     1
176
     1
 42
1.0
176
     1
 92
        0
176
     1
 66
   257
176
     1
 43
1.0
176
     1
 76
     1
176
     1
 77
     6
176
     1
 78
     2
176
     1
 67
     7
176
     1
 79
     5
176
     1
170
     0
176
     1
171
     0
176
     1
290
     0
176
     1
 93
        1
176
     1
 44
0.0
176
     1
173
     0
176
     1
1001
ACAD
1000
AcDbSavedByObjectVersion
1070
     0
  0
VISUALSTYLE
  5
2E
102
{ACAD_XDICTIONARY
360
546
102
}
102
{ACAD_REACTORS
330
29
102
}
330
29
100
AcDbVisualStyle
  2
Basic
 70
     7
177
     2
291
     1
 71
     1
176
     1
 72
     0
176
     1
 73
     1
176
     1
 90
        0
176
     1
 40
0.6
176
     1
 41
30.0
176
     1
 63
     7
421
 16777215
176
     1
 74
     0
176
     1
 91
        4
176
     1
 64
     7
176
     1
 65
   257
176
     1
 75
     1
176
     1
175
     1
176
     1
 42
1.0
176
     1
 92
        8
176
     1
 66
     7
176
     1
 43
1.0
176
     1
 76
     1
176
     1
 77
     6
176
     1
 78
     2
176
     1
 67
     7
176
     1
 79
     5
176
     1
170
     0
176
     1
171
     0
176
     1
290
     0
176
     1
 93
        1
176
     1
 44
0.0
176
     1
173
     0
176
     1
1001
ACAD
1000
AcDbSavedByObjectVersion
1070
     0
  0
VISUALSTYLE
  5
35
102
{ACAD_XDICTIONARY
360
554
102
}
102
{ACAD_REACTORS
330
29
102
}
330
29
100
AcDbVisualStyle
  2
Brighten
 70
    12
177
     2
291
     1
 71
     2
176
     1
 72
     2
176
     1
 73
     0
176
     1
 90
        0
176
     1
 40
0.6
176
     1
 41
30.0
176
     1
 63
     7
421
 16777215
176
     1
 74
     1
176
     1
 91
        4
176
     1
 64
     7
176
     1
 65
   257
176
     1
 75
     1
176
     1
175
     1
176
     1
 42
1.0
176
     1
 92
        8
176
     1
 66
     7
176
     1
 43
1.0
176
     1
 76
     1
176
     1
 77
     6
176
     1
 78
     2
176
     1
 67
     7
176
     1
 79
     5
176
     1
170
     0
176
     1
171
     0
176
     1
290
     0
176
     1
 93
        1
176
     1
 44
50.0
176
     1
173
     0
176
     1
1001
ACAD
1000
AcDbSavedByObjectVersion
1070
     0
  0
VISUALSTYLE
  5
39
102
{ACAD_XDICTIONARY
360
55C
102
}
102
{ACAD_REACTORS
330
29
102
}
330
29
100
AcDbVisualStyle
  2
ColorChange
 70
    16
177
     2
291
     1
 71
     2
176
     1
 72
     2
176
     1
 73
     3
176
     1
 90
        0
176
     1
 40
0.6
176
     1
 41
30.0
176
     1
 63
     8
421
  8421504
176
     1
 74
     1
176
     1
 91
        4
176
     1
 64
     7
176
     1
 65
   257
176
     1
 75
     1
176
     1
175
     1
176
     1
 42
1.0
176
     1
 92
        8
176
     1
 66
     8
424
  8421504
176
     1
 43
1.0
176
     1
 76
     1
176
     1
 77
     6
176
     1
 78
     2
176
     1
 67
     7
176
     1
 79
     5
176
     1
170
     0
176
     1
171
     0
176
     1
290
     0
176
     1
 93
        1
176
     1
 44
0.0
176
     1
173
     0
176
     1
1001
ACAD
1000
AcDbSavedByObjectVersion
1070
     0
  0
VISUALSTYLE
  5
32
102
{ACAD_XDICTIONARY
360
54E
102
}
102
{ACAD_REACTORS
330
29
102
}
330
29
100
AcDbVisualStyle
  2
Conceptual
 70
     9
177
     2
291
     0
 71
     3
176
     1
 72
     2
176
     1
 73
     0
176
     1
 90
        0
176
     1
 40
0.6
176
     1
 41
30.0
176
     1
 63
     7
421
 16777215
176
     1
 74
     2
176
     1
 91
        2
176
     1
 64
     7
176
     1
 65
   257
176
     1
 75
     1
176
     1
175
     1
176
     1
 42
179.0
176
     1
 92
        8
176
     1
 66
     7
176
     1
 43
1.0
176
     1
 76
     1
176
     1
 77
     6
176
     1
 78
     2
176
     1
 67
     7
176
     1
 79
     3
176
     1
170
     0
176
     1
171
     0
176
     1
290
     0
176
     1
 93
        1
176
     1
 44
0.0
176
     1
173
     0
176
     1
1001
ACAD
1000
AcDbSavedByObjectVersion
1070
     0
  0
VISUALSTYLE
  5
34
102
{ACAD_XDICTIONARY
360
552
102
}
102
{ACAD_REACTORS
330
29
102
}
330
29
100
AcDbVisualStyle
  2
Dim
 70
    11
177
     2
291
     1
 71
     2
176
     1
 72
     2
176
     1
 73
     0
176
     1
 90
        0
176
     1
 40
0.6
176
     1
 41
30.0
176
     1
 63
     7
421
 16777215
176
     1
 74
     1
176
     1
 91
        4
176
     1
 64
     7
176
     1
 65
   257
176
     1
 75
     1
176
     1
175
     1
176
     1
 42
1.0
176
     1
 92
        8
176
     1
 66
     7
176
     1
 43
1.0
176
     1
 76
     1
176
     1
 77
     6
176
     1
 78
     2
176
     1
 67
     7
176
     1
 79
     5
176
     1
170
     0
176
     1
171
     0
176
     1
290
     0
176
     1
 93
        1
176
     1
 44
-50.0
176
     1
173
     0
176
     1
1001
ACAD
1000
AcDbSavedByObjectVersion
1070
     0
  0
VISUALSTYLE
  5
41
102
{ACAD_XDICTIONARY
360
56C
102
}
102
{ACAD_REACTORS
330
29
102
}
330
29
100
AcDbVisualStyle
  2
EdgeColorOff
 70
    22
177
     2
291
     1
 71
     2
176
     0
 72
     2
176
     0
 73
     0
176
     0
 90
        0
176
     0
 40
0.6
176
     0
 41
30.0
176
     0
 63
     7
421
 16777215
176
     0
 74
     1
176
     0
 91
        4
176
     0
 64
     7
176
     0
 65
   257
176
     0
 75
     1
176
     0
175
     1
176
     0
 42
1.0
176
     0
 92
        8
176
     2
 66
     7
176
     0
 43
1.0
176
     0
 76
     1
176
     0
 77
     6
176
     0
 78
     2
176
     0
 67
     7
176
     0
 79
     5
176
     0
170
     0
176
     0
171
     0
176
     0
290
     0
176
     0
 93
        1
176
     0
 44
0.0
176
     0
173
     0
176
     0
1001
ACAD
1000
AcDbSavedByObjectVersion
1070
     0
  0
VISUALSTYLE
  5
38
102
{ACAD_XDICTIONARY
360
55A
102
}
102
{ACAD_REACTORS
330
29
102
}
330
29
100
AcDbVisualStyle
  2
Facepattern
 70
    15
177
     2
291
     1
 71
     2
176
     1
 72
     2
176
     1
 73
     0
176
     1
 90
        0
176
     1
 40
0.6
176
     1
 41
30.0
176
     1
 63
     7
421
 16777215
176
     1
 74
     1
176
     1
 91
        4
176
     1
 64
     7
176
     1
 65
   257
176
     1
 75
     1
176
     1
175
     1
176
     1
 42
1.0
176
     1
 92
        8
176
     1
 66
     7
176
     1
 43
1.0
176
     1
 76
     1
176
     1
 77
     6
176
     1
 78
     2
176
     1
 67
     7
176
     1
 79
     5
176
     1
170
     0
176
     1
171
     0
176
     1
290
     0
176
     1
 93
        1
176
     1
 44
0.0
176
     1
173
     0
176
     1
1001
ACAD
1000
AcDbSavedByObjectVersion
1070
     0
  0
VISUALSTYLE
  5
2A
102
{ACAD_XDICTIONARY
360
53E
102
}
102
{ACAD_REACTORS
330
29
102
}
330
29
100
AcDbVisualStyle
  2
Flat
 70
     0
177
     2
291
     1
 71
     2
176
     1
 72
     1
176
     1
 73
     1
176
     1
 90
        2
176
     1
 40
0.6
176
     1
 41
30.0
176
     1
 63
     7
421
 16777215
176
     1
 74
     0
176
     1
 91
        0
176
     1
 64
     7
176
     1
 65
   257
176
     1
 75
     1
176
     1
175
     1
176
     1
 42
1.0
176
     1
 92
        8
176
     1
 66
     7
176
     1
 43
1.0
176
     1
 76
     1
176
     1
 77
     6
176
     1
 78
     2
176
     1
 67
     7
176
     1
 79
     5
176
     1
170
     0
176
     1
171
     0
176
     1
290
     0
176
     1
 93
       13
176
     1
 44
0.0
176
     1
173
     0
176
     1
1001
ACAD
1000
AcDbSavedByObjectVersion
1070
     0
  0
VISUALSTYLE
  5
2B
102
{ACAD_XDICTIONARY
360
540
102
}
102
{ACAD_REACTORS
330
29
102
}
330
29
100
AcDbVisualStyle
  2
FlatWithEdges
 70
     1
177
     2
291
     1
 71
     2
176
     1
 72
     1
176
     1
 73
     1
176
     1
 90
        2
176
     1
 40
0.6
176
     1
 41
30.0
176
     1
 63
     7
421
 16777215
176
     1
 74
     1
176
     1
 91
        0
176
     1
 64
     7
176
     1
 65
   257
176
     1
 75
     1
176
     1
175
     1
176
     1
 42
1.0
176
     1
 92
        0
176
     1
 66
   257
176
     1
 43
1.0
176
     1
 76
     1
176
     1
 77
     6
176
     1
 78
     2
176
     1
 67
     7
176
     1
 79
     5
176
     1
170
     0
176
     1
171
     0
176
     1
290
     0
176
     1
 93
       13
176
     1
 44
0.0
176
     1
173
     0
176
     1
1001
ACAD
1000
AcDbSavedByObjectVersion
1070
     0
  0
VISUALSTYLE
  5
2C
102
{ACAD_XDICTIONARY
360
542
102
}
102
{ACAD_REACTORS
330
29
102
}
330
29
100
AcDbVisualStyle
  2
Gouraud
 70
     2
177
     2
291
     1
 71
     2
176
     1
 72
     2
176
     1
 73
     1
176
     1
 90
        2
176
     1
 40
0.6
176
     1
 41
30.0
176
     1
 63
     7
421
 16777215
176
     1
 74
     0
176
     1
 91
        0
176
     1
 64
     7
176
     1
 65
   257
176
     1
 75
     1
176
     1
175
     1
176
     1
 42
1.0
176
     1
 92
        0
176
     1
 66
     7
176
     1
 43
1.0
176
     1
 76
     1
176
     1
 77
     6
176
     1
 78
     2
176
     1
 67
     7
176
     1
 79
     5
176
     1
170
     0
176
     1
171
     0
176
     1
290
     0
176
     1
 93
       13
176
     1
 44
0.0
176
     1
173
     0
176
     1
1001
ACAD
1000
AcDbSavedByObjectVersion
1070
     0
  0
VISUALSTYLE
  5
2D
102
{ACAD_XDICTIONARY
360
544
102
}
102
{ACAD_REACTORS
330
29
102
}
330
29
100
AcDbVisualStyle
  2
GouraudWithEdges
 70
     3
177
     2
291
     1
 71
     2
176
     1
 72
     2
176
     1
 73
     1
176
     1
 90
        2
176
     1
 40
0.6
176
     1
 41
30.0
176
     1
 63
     7
421
 16777215
176
     1
 74
     1
176
     1
 91
        0
176
     1
 64
     7
176
     1
 65
   257
176
     1
 75
     1
176
     1
175
     1
176
     1
 42
1.0
176
     1
 92
        0
176
     1
 66
   257
176
     1
 43
1.0
176
     1
 76
     1
176
     1
 77
     6
176
     1
 78
     2
176
     1
 67
     7
176
     1
 79
     5
176
     1
170
     0
176
     1
171
     0
176
     1
290
     0
176
     1
 93
       13
176
     1
 44
0.0
176
     1
173
     0
176
     1
1001
ACAD
1000
AcDbSavedByObjectVersion
1070
     0
  0
VISUALSTYLE
  5
31
102
{ACAD_XDICTIONARY
360
54C
102
}
102
{ACAD_REACTORS
330
29
102
}
330
29
100
AcDbVisualStyle
  2
Hidden
 70
     6
177
     2
291
     0
 71
     1
176
     1
 72
     2
176
     1
 73
     2
176
     1
 90
        0
176
     1
 40
0.6
176
     1
 41
30.0
176
     1
 63
     7
421
 16777215
176
     1
 74
     2
176
     1
 91
        2
176
     1
 64
     7
176
     1
 65
   257
176
     1
 75
     2
176
     1
175
     1
176
     1
 42
40.0
176
     1
 92
        0
176
     1
 66
   257
176
     1
 43
1.0
176
     1
 76
     1
176
     1
 77
     6
176
     1
 78
     2
176
     1
 67
     7
176
     1
 79
     3
176
     1
170
     0
176
     1
171
     0
176
     1
290
     0
176
     1
 93
        1
176
     1
 44
0.0
176
     1
173
     0
176
     1
1001
ACAD
1000
AcDbSavedByObjectVersion
1070
     0
  0
VISUALSTYLE
  5
3F
102
{ACAD_XDICTIONARY
360
568
102
}
102
{ACAD_REACTORS
330
29
102
}
330
29
100
AcDbVisualStyle
  2
JitterOff
 70
    20
177
     2
291
     1
 71
     2
176
     0
 72
     2
176
     0
 73
     0
176
     0
 90
        0
176
     0
 40
0.6
176
     0
 41
30.0
176
     0
 63
     7
421
 16777215
176
     0
 74
     1
176
     0
 91
        4
176
     0
 64
     7
176
     0
 65
   257
176
     0
 75
     1
176
     0
175
     1
176
     0
 42
1.0
176
     0
 92
       10
176
     2
 66
     7
176
     0
 43
1.0
176
     0
 76
     1
176
     0
 77
     6
176
     0
 78
     2
176
     0
 67
     7
176
     0
 79
     5
176
     0
170
     0
176
     0
171
     0
176
     0
290
     0
176
     0
 93
        1
176
     0
 44
0.0
176
     0
173
     0
176
     0
1001
ACAD
1000
AcDbSavedByObjectVersion
1070
     0
  0
VISUALSTYLE
  5
37
102
{ACAD_XDICTIONARY
360
558
102
}
102
{ACAD_REACTORS
330
29
102
}
330
29
100
AcDbVisualStyle
  2
Linepattern
 70
    14
177
     2
291
     1
 71
     2
176
     1
 72
     2
176
     1
 73
     0
176
     1
 90
        0
176
     1
 40
0.6
176
     1
 41
30.0
176
     1
 63
     7
421
 16777215
176
     1
 74
     1
176
     1
 91
        4
176
     1
 64
     7
176
     1
 65
   257
176
     1
 75
     7
176
     1
175
     7
176
     1
 42
1.0
176
     1
 92
        8
176
     1
 66
     7
176
     1
 43
1.0
176
     1
 76
     1
176
     1
 77
     6
176
     1
 78
     2
176
     1
 67
     7
176
     1
 79
     5
176
     1
170
     0
176
     1
171
     0
176
     1
290
     0
176
     1
 93
        1
176
     1
 44
0.0
176
     1
173
     0
176
     1
1001
ACAD
1000
AcDbSavedByObjectVersion
1070
     0
  0
VISUALSTYLE
  5
40
102
{ACAD_XDICTIONARY
360
56A
102
}
102
{ACAD_REACTORS
330
29
102
}
330
29
100
AcDbVisualStyle
  2
OverhangOff
 70
    21
177
     2
291
     1
 71
     2
176
     0
 72
     2
176
     0
 73
     0
176
     0
 90
        0
176
     0
 40
0.6
176
     0
 41
30.0
176
     0
 63
     7
421
 16777215
176
     0
 74
     1
176
     0
 91
        4
176
     0
 64
     7
176
     0
 65
   257
176
     0
 75
     1
176
     0
175
     1
176
     0
 42
1.0
176
     0
 92
        9
176
     2
 66
     7
176
     0
 43
1.0
176
     0
 76
     1
176
     0
 77
     6
176
     0
 78
     2
176
     0
 67
     7
176
     0
 79
     5
176
     0
170
     0
176
     0
171
     0
176
     0
290
     0
176
     0
 93
        1
176
     0
 44
0.0
176
     0
173
     0
176
     0
1001
ACAD
1000
AcDbSavedByObjectVersion
1070
     0
  0
VISUALSTYLE
  5
33
102
{ACAD_XDICTIONARY
360
550
102
}
102
{ACAD_REACTORS
330
29
102
}
330
29
100
AcDbVisualStyle
  2
Realistic
 70
     8
177
     2
291
     0
 71
     2
176
     1
 72
     3
176
     1
 73
     0
176
     1
 90
        2
176
     1
 40
0.6
176
     1
 41
30.0
176
     1
 63
     7
421
 16777215
176
     1
 74
     0
176
     1
 91
        0
176
     1
 64
     7
176
     1
 65
   257
176
     1
 75
     1
176
     1
175
     1
176
     1
 42
1.0
176
     1
 92
        8
176
     1
 66
   257
176
     1
 43
1.0
176
     1
 76
     1
176
     1
 77
     6
176
     1
 78
     2
176
     1
 67
     7
176
     1
 79
     3
176
     1
170
     0
176
     1
171
     0
176
     1
290
     0
176
     1
 93
       13
176
     1
 44
0.0
176
     1
173
     0
176
     1
1001
ACAD
1000
AcDbSavedByObjectVersion
1070
     0
  0
VISUALSTYLE
  5
3E
102
{ACAD_XDICTIONARY
360
566
102
}
102
{ACAD_REACTORS
330
29
102
}
330
29
100
AcDbVisualStyle
  2
Shaded
 70
    27
177
     2
291
     0
 71
     2
176
     1
 72
     2
176
     1
 73
     1
176
     1
 90
        2
176
     1
 40
0.6
176
     1
 41
30.0
176
     1
 63
     7
421
 16777215
176
     1
 74
     0
176
     1
 91
        4
176
     1
 64
     7
176
     1
 65
   257
176
     1
 75
     1
176
     1
175
     1
176
     1
 42
1.0
176
     1
 92
        8
176
     1
 66
   257
176
     1
 43
1.0
176
     1
 76
     1
176
     1
 77
     6
176
     1
 78
     2
176
     1
 67
     8
425
  7895160
176
     1
 79
     3
176
     1
170
     0
176
     1
171
     0
176
     1
290
     0
176
     1
 93
        5
176
     1
 44
0.0
176
     1
173
     0
176
     1
1001
ACAD
1000
AcDbSavedByObjectVersion
1070
     0
  0
VISUALSTYLE
  5
3D
102
{ACAD_XDICTIONARY
360
564
102
}
102
{ACAD_REACTORS
330
29
102
}
330
29
100
AcDbVisualStyle
  2
Shaded with edges
 70
    26
177
     2
291
     0
 71
     2
176
     1
 72
     2
176
     1
 73
     1
176
     1
 90
        2
176
     1
 40
0.6
176
     1
 41
30.0
176
     1
 63
     7
421
 16777215
176
     1
 74
     1
176
     1
 91
       10
176
     1
 64
     7
176
     1
 65
   257
176
     1
 75
     2
176
     1
175
     1
176
     1
 42
1.0
176
     1
 92
        8
176
     1
 66
   257
176
     1
 43
1.0
176
     1
 76
     1
176
     1
 77
     6
176
     1
 78
     2
176
     1
 67
     7
176
     1
 79
     3
176
     1
170
     0
176
     1
171
     0
176
     1
290
     0
176
     1
 93
        5
176
     1
 44
0.0
176
     1
173
     0
176
     1
1001
ACAD
1000
AcDbSavedByObjectVersion
1070
     0
  0
VISUALSTYLE
  5
3A
102
{ACAD_XDICTIONARY
360
55E
102
}
102
{ACAD_REACTORS
330
29
102
}
330
29
100
AcDbVisualStyle
  2
Shades of Gray
 70
    23
177
     2
291
     0
 71
     2
176
     1
 72
     2
176
     1
 73
     3
176
     1
 90
        0
176
     1
 40
0.6
176
     1
 41
30.0
176
     1
 63
     7
421
 16777215
176
     1
 74
     2
176
     1
 91
        2
176
     1
 64
     7
176
     1
 65
     7
176
     1
 75
     1
176
     1
175
     1
176
     1
 42
40.0
176
     1
 92
        8
176
     1
 66
     7
176
     1
 43
1.0
176
     1
 76
     1
176
     1
 77
     6
176
     1
 78
     2
176
     1
 67
     7
176
     1
 79
     3
176
     1
170
     0
176
     1
171
     0
176
     1
290
     0
176
     1
 93
        1
176
     1
 44
0.0
176
     1
173
     0
176
     1
1001
ACAD
1000
AcDbSavedByObjectVersion
1070
     0
  0
VISUALSTYLE
  5
3B
102
{ACAD_XDICTIONARY
360
560
102
}
102
{ACAD_REACTORS
330
29
102
}
330
29
100
AcDbVisualStyle
  2
Sketchy
 70
    24
177
     2
291
     0
 71
     1
176
     1
 72
     2
176
     1
 73
     2
176
     1
 90
        0
176
     1
 40
0.6
176
     1
 41
30.0
176
     1
 63
     7
421
 16777215
176
     1
 74
     2
176
     1
 91
        2
176
     1
 64
     7
176
     1
 65
     7
176
     1
 75
     1
176
     1
175
     1
176
     1
 42
40.0
176
     1
 92
       11
176
     1
 66
     7
176
     1
 43
1.0
176
     1
 76
     1
176
     1
 77
     6
176
     1
 78
     2
176
     1
 67
     7
176
     1
 79
     6
176
     1
170
     0
176
     1
171
     0
176
     1
290
     0
176
     1
 93
        1
176
     1
 44
0.0
176
     1
173
     0
176
     1
1001
ACAD
1000
AcDbSavedByObjectVersion
1070
     0
  0
VISUALSTYLE
  5
36
102
{ACAD_XDICTIONARY
360
556
102
}
102
{ACAD_REACTORS
330
29
102
}
330
29
100
AcDbVisualStyle
  2
Thicken
 70
    13
177
     2
291
     1
 71
     2
176
     1
 72
     2
176
     1
 73
     0
176
     1
 90
        0
176
     1
 40
0.6
176
     1
 41
30.0
176
     1
 63
     7
421
 16777215
176
     1
 74
     1
176
     1
 91
        4
176
     1
 64
     7
176
     1
 65
   257
176
     1
 75
     1
176
     1
175
     1
176
     1
 42
1.0
176
     1
 92
       12
176
     1
 66
     7
176
     1
 43
1.0
176
     1
 76
     1
176
     1
 77
     6
176
     1
 78
     2
176
     1
 67
     7
176
     1
 79
     5
176
     1
170
     0
176
     1
171
     0
176
     1
290
     0
176
     1
 93
        1
176
     1
 44
0.0
176
     1
173
     0
176
     1
1001
ACAD
1000
AcDbSavedByObjectVersion
1070
     0
  0
VISUALSTYLE
  5
30
102
{ACAD_XDICTIONARY
360
54A
102
}
102
{ACAD_REACTORS
330
29
102
}
330
29
100
AcDbVisualStyle
  2
Wireframe
 70
     5
177
     2
291
     0
 71
     0
176
     1
 72
     2
176
     1
 73
     0
176
     1
 90
        0
176
     1
 40
0.6
176
     1
 41
30.0
176
     1
 63
     7
421
 16777215
176
     1
 74
     1
176
     1
 91
        4
176
     1
 64
     7
176
     1
 65
   257
176
     1
 75
     1
176
     1
175
     1
176
     1
 42
1.0
176
     1
 92
        0
176
     1
 66
   257
176
     1
 43
1.0
176
     1
 76
     1
176
     1
 77
     6
176
     1
 78
     2
176
     1
 67
     7
176
     1
 79
     3
176
     1
170
     0
176
     1
171
     0
176
     1
290
     0
176
     1
 93
        1
176
     1
 44
0.0
176
     1
173
     0
176
     1
1001
ACAD
1000
AcDbSavedByObjectVersion
1070
     0
  0
VISUALSTYLE
  5
3C
102
{ACAD_XDICTIONARY
360
562
102
}
102
{ACAD_REACTORS
330
29
102
}
330
29
100
AcDbVisualStyle
  2
X-Ray
 70
    25
177
     2
291
     0
 71
     2
176
     1
 72
     2
176
     1
 73
     1
176
     1
 90
        1
176
     1
 40
0.5
176
     1
 41
30.0
176
     1
 63
     7
421
 16777215
176
     1
 74
     1
176
     1
 91
        0
176
     1
 64
     7
176
     1
 65
   257
176
     1
 75
     1
176
     1
175
     1
176
     1
 42
1.0
176
     1
 92
        8
176
     1
 66
     7
176
     1
 43
1.0
176
     1
 76
     1
176
     1
 77
     6
176
     1
 78
     2
176
     1
 67
     7
176
     1
 79
     3
176
     1
170
     0
176
     1
171
     0
176
     1
290
     0
176
     1
 93
       13
176
     1
 44
0.0
176
     1
173
     0
176
     1
1001
ACAD
1000
AcDbSavedByObjectVersion
1070
     0
  0
DICTIONARYVAR
  5
36F
102
{ACAD_REACTORS
330
369
102
}
330
369
100
DictionaryVariables
280
     0
  1
1:1
  0
DICTIONARYVAR
  5
36B
102
{ACAD_REACTORS
330
369
102
}
330
369
100
DictionaryVariables
280
     0
  1
STANDARD
  0
DICTIONARYVAR
  5
36A
102
{ACAD_REACTORS
330
369
102
}
330
369
100
DictionaryVariables
280
     0
  1
STANDARD
  0
DICTIONARYVAR
  5
36C
102
{ACAD_REACTORS
330
369
102
}
330
369
100
DictionaryVariables
280
     0
  1
Imperial24
  0
DICTIONARYVAR
  5
36D
102
{ACAD_REACTORS
330
369
102
}
330
369
100
DictionaryVariables
280
     0
  1
Imperial24
  0
DICTIONARYVAR
  5
371
102
{ACAD_REACTORS
330
369
102
}
330
369
100
DictionaryVariables
280
     0
  1
1
  0
DICTIONARYVAR
  5
372
102
{ACAD_REACTORS
330
369
102
}
330
369
100
DictionaryVariables
280
     0
  1
15
  0
DICTIONARYVAR
  5
370
102
{ACAD_REACTORS
330
369
102
}
330
369
100
DictionaryVariables
280
     0
  1
0
  0
DICTIONARYVAR
  5
36E
102
{ACAD_REACTORS
330
369
102
}
330
369
100
DictionaryVariables
280
     0
  1
0
  0
DICTIONARY
  5
570
330
6A
100
AcDbDictionary
280
     1
281
     1
  3
ACAD_XREC_ROUNDTRIP
360
571
  0
DICTIONARY
  5
574
330
2EF
100
AcDbDictionary
280
     1
281
     1
  3
ACAD_XREC_ROUNDTRIP
360
575
  0
DICTIONARY
  5
1A
330
19
100
AcDbDictionary
280
     1
281
     1
  3
BUMPTILE
360
1C
  3
DIFFUSETILE
360
1B
  3
OPACITYTILE
360
1F
  3
REFLECTIONTILE
360
1E
  3
REFRACTIONTILE
360
20
  3
SPECULARTILE
360
1D
  0
DICTIONARY
  5
12
330
11
100
AcDbDictionary
280
     1
281
     1
  3
BUMPTILE
360
14
  3
DIFFUSETILE
360
13
  3
OPACITYTILE
360
17
  3
REFLECTIONTILE
360
16
  3
REFRACTIONTILE
360
18
  3
SPECULARTILE
360
15
  0
DICTIONARY
  5
22
330
21
100
AcDbDictionary
280
     1
281
     1
  3
BUMPTILE
360
24
  3
DIFFUSETILE
360
23
  3
OPACITYTILE
360
27
  3
REFLECTIONTILE
360
26
  3
REFRACTIONTILE
360
28
  3
SPECULARTILE
360
25
  0
DICTIONARY
  5
56E
330
68
100
AcDbDictionary
280
     1
281
     1
  3
ACAD_XREC_ROUNDTRIP
360
56F
  0
DICTIONARY
  5
572
330
2EE
100
AcDbDictionary
280
     1
281
     1
  3
ACAD_XREC_ROUNDTRIP
360
573
  0
DICTIONARY
  5
3F4
330
64
100
AcDbDictionary
280
     1
281
     1
  3
ACAD_ROUNDTRIP_2008_TABLESTYLE_CELLSTYLEMAP
360
53C
  0
DICTIONARY
  5
548
330
2F
100
AcDbDictionary
280
     1
281
     1
  3
ACAD_XREC_ROUNDTRIP
360
549
  0
DICTIONARY
  5
546
330
2E
100
AcDbDictionary
280
     1
281
     1
  3
ACAD_XREC_ROUNDTRIP
360
547
  0
DICTIONARY
  5
554
330
35
100
AcDbDictionary
280
     1
281
     1
  3
ACAD_XREC_ROUNDTRIP
360
555
  0
DICTIONARY
  5
55C
330
39
100
AcDbDictionary
280
     1
281
     1
  3
ACAD_XREC_ROUNDTRIP
360
55D
  0
DICTIONARY
  5
54E
330
32
100
AcDbDictionary
280
     1
281
     1
  3
ACAD_XREC_ROUNDTRIP
360
54F
  0
DICTIONARY
  5
552
330
34
100
AcDbDictionary
280
     1
281
     1
  3
ACAD_XREC_ROUNDTRIP
360
553
  0
DICTIONARY
  5
56C
330
41
100
AcDbDictionary
280
     1
281
     1
  3
ACAD_XREC_ROUNDTRIP
360
56D
  0
DICTIONARY
  5
55A
330
38
100
AcDbDictionary
280
     1
281
     1
  3
ACAD_XREC_ROUNDTRIP
360
55B
  0
DICTIONARY
  5
53E
330
2A
100
AcDbDictionary
280
     1
281
     1
  3
ACAD_XREC_ROUNDTRIP
360
53F
  0
DICTIONARY
  5
540
330
2B
100
AcDbDictionary
280
     1
281
     1
  3
ACAD_XREC_ROUNDTRIP
360
541
  0
DICTIONARY
  5
542
330
2C
100
AcDbDictionary
280
     1
281
     1
  3
ACAD_XREC_ROUNDTRIP
360
543
  0
DICTIONARY
  5
544
330
2D
100
AcDbDictionary
280
     1
281
     1
  3
ACAD_XREC_ROUNDTRIP
360
545
  0
DICTIONARY
  5
54C
330
31
100
AcDbDictionary
280
     1
281
     1
  3
ACAD_XREC_ROUNDTRIP
360
54D
  0
DICTIONARY
  5
568
330
3F
100
AcDbDictionary
280
     1
281
     1
  3
ACAD_XREC_ROUNDTRIP
360
569
  0
DICTIONARY
  5
558
330
37
100
AcDbDictionary
280
     1
281
     1
  3
ACAD_XREC_ROUNDTRIP
360
559
  0
DICTIONARY
  5
56A
330
40
100
AcDbDictionary
280
     1
281
     1
  3
ACAD_XREC_ROUNDTRIP
360
56B
  0
DICTIONARY
  5
550
330
33
100
AcDbDictionary
280
     1
281
     1
  3
ACAD_XREC_ROUNDTRIP
360
551
  0
DICTIONARY
  5
566
330
3E
100
AcDbDictionary
280
     1
281
     1
  3
ACAD_XREC_ROUNDTRIP
360
567
  0
DICTIONARY
  5
564
330
3D
100
AcDbDictionary
280
     1
281
     1
  3
ACAD_XREC_ROUNDTRIP
360
565
  0
DICTIONARY
  5
55E
330
3A
100
AcDbDictionary
280
     1
281
     1
  3
ACAD_XREC_ROUNDTRIP
360
55F
  0
DICTIONARY
  5
560
330
3B
100
AcDbDictionary
280
     1
281
     1
  3
ACAD_XREC_ROUNDTRIP
360
561
  0
DICTIONARY
  5
556
330
36
100
AcDbDictionary
280
     1
281
     1
  3
ACAD_XREC_ROUNDTRIP
360
557
  0
DICTIONARY
  5
54A
330
30
100
AcDbDictionary
280
     1
281
     1
  3
ACAD_XREC_ROUNDTRIP
360
54B
  0
DICTIONARY
  5
562
330
3C
100
AcDbDictionary
280
     1
281
     1
  3
ACAD_XREC_ROUNDTRIP
360
563
  0
XRECORD
  5
571
102
{ACAD_REACTORS
330
570
102
}
330
570
100
AcDbXrecord
280
     1
102
DISPLAYNAME
  1
Imperial24
102
FLAGS
 90
        0
  0
XRECORD
  5
575
102
{ACAD_REACTORS
330
574
102
}
330
574
100
AcDbXrecord
280
     1
102
DISPLAYNAME
  1
Metric50
102
FLAGS
 90
        0
  0
XRECORD
  5
1C
102
{ACAD_REACTORS
330
1A
102
}
330
1A
100
AcDbXrecord
280
     1
270
     1
271
     1
  0
XRECORD
  5
1B
102
{ACAD_REACTORS
330
1A
102
}
330
1A
100
AcDbXrecord
280
     1
270
     1
271
     1
  0
XRECORD
  5
1F
102
{ACAD_REACTORS
330
1A
102
}
330
1A
100
AcDbXrecord
280
     1
270
     1
271
     1
  0
XRECORD
  5
1E
102
{ACAD_REACTORS
330
1A
102
}
330
1A
100
AcDbXrecord
280
     1
270
     1
271
     1
  0
XRECORD
  5
20
102
{ACAD_REACTORS
330
1A
102
}
330
1A
100
AcDbXrecord
280
     1
270
     1
271
     1
  0
XRECORD
  5
1D
102
{ACAD_REACTORS
330
1A
102
}
330
1A
100
AcDbXrecord
280
     1
270
     1
271
     1
  0
XRECORD
  5
14
102
{ACAD_REACTORS
330
12
102
}
330
12
100
AcDbXrecord
280
     1
270
     1
271
     1
  0
XRECORD
  5
13
102
{ACAD_REACTORS
330
12
102
}
330
12
100
AcDbXrecord
280
     1
270
     1
271
     1
  0
XRECORD
  5
17
102
{ACAD_REACTORS
330
12
102
}
330
12
100
AcDbXrecord
280
     1
270
     1
271
     1
  0
XRECORD
  5
16
102
{ACAD_REACTORS
330
12
102
}
330
12
100
AcDbXrecord
280
     1
270
     1
271
     1
  0
XRECORD
  5
18
102
{ACAD_REACTORS
330
12
102
}
330
12
100
AcDbXrecord
280
     1
270
     1
271
     1
  0
XRECORD
  5
15
102
{ACAD_REACTORS
330
12
102
}
330
12
100
AcDbXrecord
280
     1
270
     1
271
     1
  0
XRECORD
  5
24
102
{ACAD_REACTORS
330
22
102
}
330
22
100
AcDbXrecord
280
     1
270
     1
271
     1
  0
XRECORD
  5
23
102
{ACAD_REACTORS
330
22
102
}
330
22
100
AcDbXrecord
280
     1
270
     1
271
     1
  0
XRECORD
  5
27
102
{ACAD_REACTORS
330
22
102
}
330
22
100
AcDbXrecord
280
     1
270
     1
271
     1
  0
XRECORD
  5
26
102
{ACAD_REACTORS
330
22
102
}
330
22
100
AcDbXrecord
280
     1
270
     1
271
     1
  0
XRECORD
  5
28
102
{ACAD_REACTORS
330
22
102
}
330
22
100
AcDbXrecord
280
     1
270
     1
271
     1
  0
XRECORD
  5
25
102
{ACAD_REACTORS
330
22
102
}
330
22
100
AcDbXrecord
280
     1
270
     1
271
     1
  0
XRECORD
  5
56F
102
{ACAD_REACTORS
330
56E
102
}
330
56E
100
AcDbXrecord
280
     1
102
DISPLAYNAME
  1
Imperial24
102
FLAGS
 90
        0
  0
XRECORD
  5
573
102
{ACAD_REACTORS
330
572
102
}
330
572
100
AcDbXrecord
280
     1
102
DISPLAYNAME
  1
Metric50
102
FLAGS
 90
        0
  0
CELLSTYLEMAP
  5
53C
102
{ACAD_REACTORS
330
3F4
102
}
330
3F4
100
AcDbCellStyleMap
 90
        3
300
CELLSTYLE
  1
TABLEFORMAT_BEGIN
 90
        5
170
     1
 91
        0
 92
    32768
 62
   257
 93
        1
300
CONTENTFORMAT
  1
CONTENTFORMAT_BEGIN
 90
        0
 91
        0
 92
      512
 93
        0
300

 40
0.0
140
1.0
 94
        5
 62
     0
340
55
144
0.25
309
CONTENTFORMAT_END
171
     1
301
MARGIN
  1
CELLMARGIN_BEGIN
 40
0.06
 40
0.06
 40
0.06
 40
0.06
 40
0.18
 40
0.18
309
CELLMARGIN_END
 94
        6
 95
        1
302
GRIDFORMAT
  1
GRIDFORMAT_BEGIN
 90
        0
 91
        1
 62
     0
 92
       -2
340
0
 93
        0
 40
0.045
309
GRIDFORMAT_END
 95
        2
302
GRIDFORMAT
  1
GRIDFORMAT_BEGIN
 90
        0
 91
        1
 62
     0
 92
       -2
340
0
 93
        0
 40
0.045
309
GRIDFORMAT_END
 95
        4
302
GRIDFORMAT
  1
GRIDFORMAT_BEGIN
 90
        0
 91
        1
 62
     0
 92
       -2
340
0
 93
        0
 40
0.045
309
GRIDFORMAT_END
 95
        8
302
GRIDFORMAT
  1
GRIDFORMAT_BEGIN
 90
        0
 91
        1
 62
     0
 92
       -2
340
0
 93
        0
 40
0.045
309
GRIDFORMAT_END
 95
       16
302
GRIDFORMAT
  1
GRIDFORMAT_BEGIN
 90
        0
 91
        1
 62
     0
 92
       -2
340
0
 93
        0
 40
0.045
309
GRIDFORMAT_END
 95
       32
302
GRIDFORMAT
  1
GRIDFORMAT_BEGIN
 90
        0
 91
        1
 62
     0
 92
       -2
340
0
 93
        0
 40
0.045
309
GRIDFORMAT_END
309
TABLEFORMAT_END
  1
CELLSTYLE_BEGIN
 90
        1
 91
        1
300
_TITLE
309
CELLSTYLE_END
300
CELLSTYLE
  1
TABLEFORMAT_BEGIN
 90
        5
170
     1
 91
        0
 92
        0
 62
   257
 93
        1
300
CONTENTFORMAT
  1
CONTENTFORMAT_BEGIN
 90
        0
 91
        0
 92
      512
 93
        0
300

 40
0.0
140
1.0
 94
        5
 62
     0
340
55
144
0.18
309
CONTENTFORMAT_END
171
     1
301
MARGIN
  1
CELLMARGIN_BEGIN
 40
0.06
 40
0.06
 40
0.06
 40
0.06
 40
0.18
 40
0.18
309
CELLMARGIN_END
 94
        6
 95
        1
302
GRIDFORMAT
  1
GRIDFORMAT_BEGIN
 90
        0
 91
        1
 62
     0
 92
       -2
340
0
 93
        0
 40
0.045
309
GRIDFORMAT_END
 95
        2
302
GRIDFORMAT
  1
GRIDFORMAT_BEGIN
 90
        0
 91
        1
 62
     0
 92
       -2
340
0
 93
        0
 40
0.045
309
GRIDFORMAT_END
 95
        4
302
GRIDFORMAT
  1
GRIDFORMAT_BEGIN
 90
        0
 91
        1
 62
     0
 92
       -2
340
0
 93
        0
 40
0.045
309
GRIDFORMAT_END
 95
        8
302
GRIDFORMAT
  1
GRIDFORMAT_BEGIN
 90
        0
 91
        1
 62
     0
 92
       -2
340
0
 93
        0
 40
0.045
309
GRIDFORMAT_END
 95
       16
302
GRIDFORMAT
  1
GRIDFORMAT_BEGIN
 90
        0
 91
        1
 62
     0
 92
       -2
340
0
 93
        0
 40
0.045
309
GRIDFORMAT_END
 95
       32
302
GRIDFORMAT
  1
GRIDFORMAT_BEGIN
 90
        0
 91
        1
 62
     0
 92
       -2
340
0
 93
        0
 40
0.045
309
GRIDFORMAT_END
309
TABLEFORMAT_END
  1
CELLSTYLE_BEGIN
 90
        2
 91
        1
300
_HEADER
309
CELLSTYLE_END
300
CELLSTYLE
  1
TABLEFORMAT_BEGIN
 90
        5
170
     1
 91
        0
 92
        0
 62
   257
 93
        1
300
CONTENTFORMAT
  1
CONTENTFORMAT_BEGIN
 90
        0
 91
        0
 92
      512
 93
        0
300

 40
0.0
140
1.0
 94
        2
 62
     0
340
55
144
0.18
309
CONTENTFORMAT_END
171
     1
301
MARGIN
  1
CELLMARGIN_BEGIN
 40
0.06
 40
0.06
 40
0.06
 40
0.06
 40
0.18
 40
0.18
309
CELLMARGIN_END
 94
        6
 95
        1
302
GRIDFORMAT
  1
GRIDFORMAT_BEGIN
 90
        0
 91
        1
 62
     0
 92
       -2
340
0
 93
        0
 40
0.045
309
GRIDFORMAT_END
 95
        2
302
GRIDFORMAT
  1
GRIDFORMAT_BEGIN
 90
        0
 91
        1
 62
     0
 92
       -2
340
0
 93
        0
 40
0.045
309
GRIDFORMAT_END
 95
        4
302
GRIDFORMAT
  1
GRIDFORMAT_BEGIN
 90
        0
 91
        1
 62
     0
 92
       -2
340
0
 93
        0
 40
0.045
309
GRIDFORMAT_END
 95
        8
302
GRIDFORMAT
  1
GRIDFORMAT_BEGIN
 90
        0
 91
        1
 62
     0
 92
       -2
340
0
 93
        0
 40
0.045
309
GRIDFORMAT_END
 95
       16
302
GRIDFORMAT
  1
GRIDFORMAT_BEGIN
 90
        0
 91
        1
 62
     0
 92
       -2
340
0
 93
        0
 40
0.045
309
GRIDFORMAT_END
 95
       32
302
GRIDFORMAT
  1
GRIDFORMAT_BEGIN
 90
        0
 91
        1
 62
     0
 92
       -2
340
0
 93
        0
 40
0.045
309
GRIDFORMAT_END
309
TABLEFORMAT_END
  1
CELLSTYLE_BEGIN
 90
        3
 91
        2
300
_DATA
309
CELLSTYLE_END
  0
XRECORD
  5
549
102
{ACAD_REACTORS
330
548
102
}
330
548
100
AcDbXrecord
280
     1
102
RTVSPost2010Prop28
280
     1
102
RTVSPost2010PropOp28
 70
     1
102
RTVSPost2010Prop29
280
     1
102
RTVSPost2010PropOp29
 70
     1
102
RTVSPost2010Prop30
280
     0
102
RTVSPost2010PropOp30
 70
     1
102
RTVSPost2010Prop31
280
     0
102
RTVSPost2010PropOp31
 70
     1
102
RTVSPost2010Prop32
280
     0
102
RTVSPost2010PropOp32
 70
     1
102
RTVSPost2010Prop33
280
     0
102
RTVSPost2010PropOp33
 70
     1
102
RTVSPost2010Prop34
280
     0
102
RTVSPost2010PropOp34
 70
     1
102
RTVSPost2010Prop35
280
     0
102
RTVSPost2010PropOp35
 70
     1
102
RTVSPost2010Prop36
280
     0
102
RTVSPost2010PropOp36
 70
     1
102
RTVSPost2010Prop37
 90
       50
102
RTVSPost2010PropOp37
 70
     1
102
RTVSPost2010Prop38
140
0.0
102
RTVSPost2010PropOp38
 70
     1
102
RTVSPost2010Prop39
140
1.0
102
RTVSPost2010PropOp39
 70
     1
102
RTVSPost2010Prop40
 90
        0
102
RTVSPost2010PropOp40
 70
     1
102
RTVSPost2010Prop41ColorIndex
 90
       18
102
RTVSPost2010Prop41ColorRGB
 90
-16777216
102
RTVSPost2010PropOp41
 70
     1
102
RTVSPost2010Prop42
 90
       50
102
RTVSPost2010PropOp42
 70
     1
102
RTVSPost2010Prop43
 90
        3
102
RTVSPost2010PropOp43
 70
     1
102
RTVSPost2010Prop44ColorIndex
 90
        5
102
RTVSPost2010Prop44ColorRGB
 90
      255
102
RTVSPost2010PropOp44
 70
     1
102
RTVSPost2010Prop45
280
     0
102
RTVSPost2010PropOp45
 70
     1
102
RTVSPost2010Prop46
 90
       50
102
RTVSPost2010PropOp46
 70
     1
102
RTVSPost2010Prop47
 90
       50
102
RTVSPost2010PropOp47
 70
     1
102
RTVSPost2010Prop48
 90
       50
102
RTVSPost2010PropOp48
 70
     1
102
RTVSPost2010Prop49
280
     0
102
RTVSPost2010PropOp49
 70
     1
102
RTVSPost2010Prop50
 90
       50
102
RTVSPost2010PropOp50
 70
     1
102
RTVSPost2010Prop51ColorIndex
 90
      256
102
RTVSPost2010Prop51ColorRGB
 90
-16777216
102
RTVSPost2010PropOp51
 70
     0
102
RTVSPost2010Prop52
140
1.0
102
RTVSPost2010PropOp52
 70
     0
102
RTVSPost2010Prop53
 90
        2
102
RTVSPost2010PropOp53
 70
     1
102
RTVSPost2010Prop54
  1
strokes_ogs.tif
102
RTVSPost2010PropOp54
 70
     1
102
RTVSPost2010Prop55
280
     0
102
RTVSPost2010PropOp55
 70
     1
102
RTVSPost2010Prop56
140
1.0
102
RTVSPost2010PropOp56
 70
     1
102
RTVSPost2010Prop57
140
1.0
102
RTVSPost2010PropOp57
 70
     1
  0
XRECORD
  5
547
102
{ACAD_REACTORS
330
546
102
}
330
546
100
AcDbXrecord
280
     1
102
RTVSPost2010Prop28
280
     0
102
RTVSPost2010PropOp28
 70
     1
102
RTVSPost2010Prop29
280
     1
102
RTVSPost2010PropOp29
 70
     1
102
RTVSPost2010Prop30
280
     1
102
RTVSPost2010PropOp30
 70
     1
102
RTVSPost2010Prop31
280
     0
102
RTVSPost2010PropOp31
 70
     1
102
RTVSPost2010Prop32
280
     0
102
RTVSPost2010PropOp32
 70
     1
102
RTVSPost2010Prop33
280
     0
102
RTVSPost2010PropOp33
 70
     1
102
RTVSPost2010Prop34
280
     0
102
RTVSPost2010PropOp34
 70
     1
102
RTVSPost2010Prop35
280
     0
102
RTVSPost2010PropOp35
 70
     1
102
RTVSPost2010Prop36
280
     0
102
RTVSPost2010PropOp36
 70
     1
102
RTVSPost2010Prop37
 90
       50
102
RTVSPost2010PropOp37
 70
     1
102
RTVSPost2010Prop38
140
0.0
102
RTVSPost2010PropOp38
 70
     1
102
RTVSPost2010Prop39
140
1.0
102
RTVSPost2010PropOp39
 70
     1
102
RTVSPost2010Prop40
 90
        0
102
RTVSPost2010PropOp40
 70
     1
102
RTVSPost2010Prop41ColorIndex
 90
       18
102
RTVSPost2010Prop41ColorRGB
 90
-16777216
102
RTVSPost2010PropOp41
 70
     1
102
RTVSPost2010Prop42
 90
       50
102
RTVSPost2010PropOp42
 70
     1
102
RTVSPost2010Prop43
 90
        3
102
RTVSPost2010PropOp43
 70
     1
102
RTVSPost2010Prop44ColorIndex
 90
        5
102
RTVSPost2010Prop44ColorRGB
 90
      255
102
RTVSPost2010PropOp44
 70
     1
102
RTVSPost2010Prop45
280
     0
102
RTVSPost2010PropOp45
 70
     1
102
RTVSPost2010Prop46
 90
       50
102
RTVSPost2010PropOp46
 70
     1
102
RTVSPost2010Prop47
 90
       50
102
RTVSPost2010PropOp47
 70
     1
102
RTVSPost2010Prop48
 90
       50
102
RTVSPost2010PropOp48
 70
     1
102
RTVSPost2010Prop49
280
     0
102
RTVSPost2010PropOp49
 70
     1
102
RTVSPost2010Prop50
 90
       50
102
RTVSPost2010PropOp50
 70
     1
102
RTVSPost2010Prop51ColorIndex
 90
      256
102
RTVSPost2010Prop51ColorRGB
 90
-16777216
102
RTVSPost2010PropOp51
 70
     0
102
RTVSPost2010Prop52
140
1.0
102
RTVSPost2010PropOp52
 70
     0
102
RTVSPost2010Prop53
 90
        2
102
RTVSPost2010PropOp53
 70
     1
102
RTVSPost2010Prop54
  1
strokes_ogs.tif
102
RTVSPost2010PropOp54
 70
     1
102
RTVSPost2010Prop55
280
     0
102
RTVSPost2010PropOp55
 70
     1
102
RTVSPost2010Prop56
140
1.0
102
RTVSPost2010PropOp56
 70
     1
102
RTVSPost2010Prop57
140
1.0
102
RTVSPost2010PropOp57
 70
     1
  0
XRECORD
  5
555
102
{ACAD_REACTORS
330
554
102
}
330
554
100
AcDbXrecord
280
     1
102
RTVSPost2010Prop28
280
     0
102
RTVSPost2010PropOp28
 70
     1
102
RTVSPost2010Prop29
280
     1
102
RTVSPost2010PropOp29
 70
     1
102
RTVSPost2010Prop30
280
     1
102
RTVSPost2010PropOp30
 70
     1
102
RTVSPost2010Prop31
280
     0
102
RTVSPost2010PropOp31
 70
     1
102
RTVSPost2010Prop32
280
     0
102
RTVSPost2010PropOp32
 70
     1
102
RTVSPost2010Prop33
280
     0
102
RTVSPost2010PropOp33
 70
     1
102
RTVSPost2010Prop34
280
     0
102
RTVSPost2010PropOp34
 70
     1
102
RTVSPost2010Prop35
280
     0
102
RTVSPost2010PropOp35
 70
     1
102
RTVSPost2010Prop36
280
     0
102
RTVSPost2010PropOp36
 70
     1
102
RTVSPost2010Prop37
 90
       50
102
RTVSPost2010PropOp37
 70
     1
102
RTVSPost2010Prop38
140
0.0
102
RTVSPost2010PropOp38
 70
     1
102
RTVSPost2010Prop39
140
1.0
102
RTVSPost2010PropOp39
 70
     1
102
RTVSPost2010Prop40
 90
        0
102
RTVSPost2010PropOp40
 70
     1
102
RTVSPost2010Prop41ColorIndex
 90
       18
102
RTVSPost2010Prop41ColorRGB
 90
-16777216
102
RTVSPost2010PropOp41
 70
     1
102
RTVSPost2010Prop42
 90
       50
102
RTVSPost2010PropOp42
 70
     1
102
RTVSPost2010Prop43
 90
        3
102
RTVSPost2010PropOp43
 70
     1
102
RTVSPost2010Prop44ColorIndex
 90
        5
102
RTVSPost2010Prop44ColorRGB
 90
      255
102
RTVSPost2010PropOp44
 70
     1
102
RTVSPost2010Prop45
280
     0
102
RTVSPost2010PropOp45
 70
     1
102
RTVSPost2010Prop46
 90
       50
102
RTVSPost2010PropOp46
 70
     1
102
RTVSPost2010Prop47
 90
       50
102
RTVSPost2010PropOp47
 70
     1
102
RTVSPost2010Prop48
 90
       50
102
RTVSPost2010PropOp48
 70
     1
102
RTVSPost2010Prop49
280
     0
102
RTVSPost2010PropOp49
 70
     1
102
RTVSPost2010Prop50
 90
       50
102
RTVSPost2010PropOp50
 70
     1
102
RTVSPost2010Prop51ColorIndex
 90
      256
102
RTVSPost2010Prop51ColorRGB
 90
-16777216
102
RTVSPost2010PropOp51
 70
     0
102
RTVSPost2010Prop52
140
1.0
102
RTVSPost2010PropOp52
 70
     0
102
RTVSPost2010Prop53
 90
        2
102
RTVSPost2010PropOp53
 70
     1
102
RTVSPost2010Prop54
  1
strokes_ogs.tif
102
RTVSPost2010PropOp54
 70
     1
102
RTVSPost2010Prop55
280
     0
102
RTVSPost2010PropOp55
 70
     1
102
RTVSPost2010Prop56
140
1.0
102
RTVSPost2010PropOp56
 70
     1
102
RTVSPost2010Prop57
140
1.0
102
RTVSPost2010PropOp57
 70
     1
  0
XRECORD
  5
55D
102
{ACAD_REACTORS
330
55C
102
}
330
55C
100
AcDbXrecord
280
     1
102
RTVSPost2010Prop28
280
     0
102
RTVSPost2010PropOp28
 70
     1
102
RTVSPost2010Prop29
280
     1
102
RTVSPost2010PropOp29
 70
     1
102
RTVSPost2010Prop30
280
     1
102
RTVSPost2010PropOp30
 70
     1
102
RTVSPost2010Prop31
280
     0
102
RTVSPost2010PropOp31
 70
     1
102
RTVSPost2010Prop32
280
     0
102
RTVSPost2010PropOp32
 70
     1
102
RTVSPost2010Prop33
280
     0
102
RTVSPost2010PropOp33
 70
     1
102
RTVSPost2010Prop34
280
     0
102
RTVSPost2010PropOp34
 70
     1
102
RTVSPost2010Prop35
280
     0
102
RTVSPost2010PropOp35
 70
     1
102
RTVSPost2010Prop36
280
     0
102
RTVSPost2010PropOp36
 70
     1
102
RTVSPost2010Prop37
 90
       50
102
RTVSPost2010PropOp37
 70
     1
102
RTVSPost2010Prop38
140
0.0
102
RTVSPost2010PropOp38
 70
     1
102
RTVSPost2010Prop39
140
1.0
102
RTVSPost2010PropOp39
 70
     1
102
RTVSPost2010Prop40
 90
        0
102
RTVSPost2010PropOp40
 70
     1
102
RTVSPost2010Prop41ColorIndex
 90
       18
102
RTVSPost2010Prop41ColorRGB
 90
-16777216
102
RTVSPost2010PropOp41
 70
     1
102
RTVSPost2010Prop42
 90
       50
102
RTVSPost2010PropOp42
 70
     1
102
RTVSPost2010Prop43
 90
        3
102
RTVSPost2010PropOp43
 70
     1
102
RTVSPost2010Prop44ColorIndex
 90
        5
102
RTVSPost2010Prop44ColorRGB
 90
      255
102
RTVSPost2010PropOp44
 70
     1
102
RTVSPost2010Prop45
280
     0
102
RTVSPost2010PropOp45
 70
     1
102
RTVSPost2010Prop46
 90
       50
102
RTVSPost2010PropOp46
 70
     1
102
RTVSPost2010Prop47
 90
       50
102
RTVSPost2010PropOp47
 70
     1
102
RTVSPost2010Prop48
 90
       50
102
RTVSPost2010PropOp48
 70
     1
102
RTVSPost2010Prop49
280
     0
102
RTVSPost2010PropOp49
 70
     1
102
RTVSPost2010Prop50
 90
       50
102
RTVSPost2010PropOp50
 70
     1
102
RTVSPost2010Prop51ColorIndex
 90
      256
102
RTVSPost2010Prop51ColorRGB
 90
-16777216
102
RTVSPost2010PropOp51
 70
     0
102
RTVSPost2010Prop52
140
1.0
102
RTVSPost2010PropOp52
 70
     0
102
RTVSPost2010Prop53
 90
        2
102
RTVSPost2010PropOp53
 70
     1
102
RTVSPost2010Prop54
  1
strokes_ogs.tif
102
RTVSPost2010PropOp54
 70
     1
102
RTVSPost2010Prop55
280
     0
102
RTVSPost2010PropOp55
 70
     1
102
RTVSPost2010Prop56
140
1.0
102
RTVSPost2010PropOp56
 70
     1
102
RTVSPost2010Prop57
140
1.0
102
RTVSPost2010PropOp57
 70
     1
  0
XRECORD
  5
54F
102
{ACAD_REACTORS
330
54E
102
}
330
54E
100
AcDbXrecord
280
     1
102
RTVSPost2010Prop28
280
     0
102
RTVSPost2010PropOp28
 70
     1
102
RTVSPost2010Prop29
280
     1
102
RTVSPost2010PropOp29
 70
     1
102
RTVSPost2010Prop30
280
     1
102
RTVSPost2010PropOp30
 70
     1
102
RTVSPost2010Prop31
280
     0
102
RTVSPost2010PropOp31
 70
     1
102
RTVSPost2010Prop32
280
     0
102
RTVSPost2010PropOp32
 70
     1
102
RTVSPost2010Prop33
280
     0
102
RTVSPost2010PropOp33
 70
     1
102
RTVSPost2010Prop34
280
     0
102
RTVSPost2010PropOp34
 70
     1
102
RTVSPost2010Prop35
280
     0
102
RTVSPost2010PropOp35
 70
     1
102
RTVSPost2010Prop36
280
     0
102
RTVSPost2010PropOp36
 70
     1
102
RTVSPost2010Prop37
 90
       50
102
RTVSPost2010PropOp37
 70
     1
102
RTVSPost2010Prop38
140
0.0
102
RTVSPost2010PropOp38
 70
     1
102
RTVSPost2010Prop39
140
1.0
102
RTVSPost2010PropOp39
 70
     1
102
RTVSPost2010Prop40
 90
        0
102
RTVSPost2010PropOp40
 70
     1
102
RTVSPost2010Prop41ColorIndex
 90
       18
102
RTVSPost2010Prop41ColorRGB
 90
-16777216
102
RTVSPost2010PropOp41
 70
     1
102
RTVSPost2010Prop42
 90
       50
102
RTVSPost2010PropOp42
 70
     1
102
RTVSPost2010Prop43
 90
        3
102
RTVSPost2010PropOp43
 70
     1
102
RTVSPost2010Prop44ColorIndex
 90
        5
102
RTVSPost2010Prop44ColorRGB
 90
      255
102
RTVSPost2010PropOp44
 70
     1
102
RTVSPost2010Prop45
280
     0
102
RTVSPost2010PropOp45
 70
     1
102
RTVSPost2010Prop46
 90
       50
102
RTVSPost2010PropOp46
 70
     1
102
RTVSPost2010Prop47
 90
       50
102
RTVSPost2010PropOp47
 70
     1
102
RTVSPost2010Prop48
 90
       50
102
RTVSPost2010PropOp48
 70
     1
102
RTVSPost2010Prop49
280
     0
102
RTVSPost2010PropOp49
 70
     1
102
RTVSPost2010Prop50
 90
       50
102
RTVSPost2010PropOp50
 70
     1
102
RTVSPost2010Prop51ColorIndex
 90
      256
102
RTVSPost2010Prop51ColorRGB
 90
-16777216
102
RTVSPost2010PropOp51
 70
     0
102
RTVSPost2010Prop52
140
1.0
102
RTVSPost2010PropOp52
 70
     0
102
RTVSPost2010Prop53
 90
        2
102
RTVSPost2010PropOp53
 70
     1
102
RTVSPost2010Prop54
  1
strokes_ogs.tif
102
RTVSPost2010PropOp54
 70
     1
102
RTVSPost2010Prop55
280
     0
102
RTVSPost2010PropOp55
 70
     1
102
RTVSPost2010Prop56
140
1.0
102
RTVSPost2010PropOp56
 70
     1
102
RTVSPost2010Prop57
140
1.0
102
RTVSPost2010PropOp57
 70
     1
  0
XRECORD
  5
553
102
{ACAD_REACTORS
330
552
102
}
330
552
100
AcDbXrecord
280
     1
102
RTVSPost2010Prop28
280
     0
102
RTVSPost2010PropOp28
 70
     1
102
RTVSPost2010Prop29
280
     1
102
RTVSPost2010PropOp29
 70
     1
102
RTVSPost2010Prop30
280
     1
102
RTVSPost2010PropOp30
 70
     1
102
RTVSPost2010Prop31
280
     0
102
RTVSPost2010PropOp31
 70
     1
102
RTVSPost2010Prop32
280
     0
102
RTVSPost2010PropOp32
 70
     1
102
RTVSPost2010Prop33
280
     0
102
RTVSPost2010PropOp33
 70
     1
102
RTVSPost2010Prop34
280
     0
102
RTVSPost2010PropOp34
 70
     1
102
RTVSPost2010Prop35
280
     0
102
RTVSPost2010PropOp35
 70
     1
102
RTVSPost2010Prop36
280
     0
102
RTVSPost2010PropOp36
 70
     1
102
RTVSPost2010Prop37
 90
       50
102
RTVSPost2010PropOp37
 70
     1
102
RTVSPost2010Prop38
140
0.0
102
RTVSPost2010PropOp38
 70
     1
102
RTVSPost2010Prop39
140
1.0
102
RTVSPost2010PropOp39
 70
     1
102
RTVSPost2010Prop40
 90
        0
102
RTVSPost2010PropOp40
 70
     1
102
RTVSPost2010Prop41ColorIndex
 90
       18
102
RTVSPost2010Prop41ColorRGB
 90
-16777216
102
RTVSPost2010PropOp41
 70
     1
102
RTVSPost2010Prop42
 90
       50
102
RTVSPost2010PropOp42
 70
     1
102
RTVSPost2010Prop43
 90
        3
102
RTVSPost2010PropOp43
 70
     1
102
RTVSPost2010Prop44ColorIndex
 90
        5
102
RTVSPost2010Prop44ColorRGB
 90
      255
102
RTVSPost2010PropOp44
 70
     1
102
RTVSPost2010Prop45
280
     0
102
RTVSPost2010PropOp45
 70
     1
102
RTVSPost2010Prop46
 90
       50
102
RTVSPost2010PropOp46
 70
     1
102
RTVSPost2010Prop47
 90
       50
102
RTVSPost2010PropOp47
 70
     1
102
RTVSPost2010Prop48
 90
       50
102
RTVSPost2010PropOp48
 70
     1
102
RTVSPost2010Prop49
280
     0
102
RTVSPost2010PropOp49
 70
     1
102
RTVSPost2010Prop50
 90
       50
102
RTVSPost2010PropOp50
 70
     1
102
RTVSPost2010Prop51ColorIndex
 90
      256
102
RTVSPost2010Prop51ColorRGB
 90
-16777216
102
RTVSPost2010PropOp51
 70
     0
102
RTVSPost2010Prop52
140
1.0
102
RTVSPost2010PropOp52
 70
     0
102
RTVSPost2010Prop53
 90
        2
102
RTVSPost2010PropOp53
 70
     1
102
RTVSPost2010Prop54
  1
strokes_ogs.tif
102
RTVSPost2010PropOp54
 70
     1
102
RTVSPost2010Prop55
280
     0
102
RTVSPost2010PropOp55
 70
     1
102
RTVSPost2010Prop56
140
1.0
102
RTVSPost2010PropOp56
 70
     1
102
RTVSPost2010Prop57
140
1.0
102
RTVSPost2010PropOp57
 70
     1
  0
XRECORD
  5
56D
102
{ACAD_REACTORS
330
56C
102
}
330
56C
100
AcDbXrecord
280
     1
102
RTVSPost2010Prop28
280
     0
102
RTVSPost2010PropOp28
 70
     1
102
RTVSPost2010Prop29
280
     1
102
RTVSPost2010PropOp29
 70
     1
102
RTVSPost2010Prop30
280
     1
102
RTVSPost2010PropOp30
 70
     1
102
RTVSPost2010Prop31
280
     0
102
RTVSPost2010PropOp31
 70
     1
102
RTVSPost2010Prop32
280
     0
102
RTVSPost2010PropOp32
 70
     1
102
RTVSPost2010Prop33
280
     0
102
RTVSPost2010PropOp33
 70
     1
102
RTVSPost2010Prop34
280
     0
102
RTVSPost2010PropOp34
 70
     1
102
RTVSPost2010Prop35
280
     0
102
RTVSPost2010PropOp35
 70
     1
102
RTVSPost2010Prop36
280
     0
102
RTVSPost2010PropOp36
 70
     1
102
RTVSPost2010Prop37
 90
       50
102
RTVSPost2010PropOp37
 70
     0
102
RTVSPost2010Prop38
140
0.0
102
RTVSPost2010PropOp38
 70
     0
102
RTVSPost2010Prop39
140
1.0
102
RTVSPost2010PropOp39
 70
     0
102
RTVSPost2010Prop40
 90
        0
102
RTVSPost2010PropOp40
 70
     0
102
RTVSPost2010Prop41ColorIndex
 90
       18
102
RTVSPost2010Prop41ColorRGB
 90
-16777216
102
RTVSPost2010PropOp41
 70
     0
102
RTVSPost2010Prop42
 90
       50
102
RTVSPost2010PropOp42
 70
     0
102
RTVSPost2010Prop43
 90
        3
102
RTVSPost2010PropOp43
 70
     0
102
RTVSPost2010Prop44ColorIndex
 90
        5
102
RTVSPost2010Prop44ColorRGB
 90
      255
102
RTVSPost2010PropOp44
 70
     0
102
RTVSPost2010Prop45
280
     0
102
RTVSPost2010PropOp45
 70
     1
102
RTVSPost2010Prop46
 90
       50
102
RTVSPost2010PropOp46
 70
     0
102
RTVSPost2010Prop47
 90
       50
102
RTVSPost2010PropOp47
 70
     0
102
RTVSPost2010Prop48
 90
       50
102
RTVSPost2010PropOp48
 70
     0
102
RTVSPost2010Prop49
280
     0
102
RTVSPost2010PropOp49
 70
     1
102
RTVSPost2010Prop50
 90
       50
102
RTVSPost2010PropOp50
 70
     0
102
RTVSPost2010Prop51ColorIndex
 90
      256
102
RTVSPost2010Prop51ColorRGB
 90
-16777216
102
RTVSPost2010PropOp51
 70
     0
102
RTVSPost2010Prop52
140
1.0
102
RTVSPost2010PropOp52
 70
     0
102
RTVSPost2010Prop53
 90
        2
102
RTVSPost2010PropOp53
 70
     0
102
RTVSPost2010Prop54
  1
strokes_ogs.tif
102
RTVSPost2010PropOp54
 70
     0
102
RTVSPost2010Prop55
280
     0
102
RTVSPost2010PropOp55
 70
     1
102
RTVSPost2010Prop56
140
1.0
102
RTVSPost2010PropOp56
 70
     0
102
RTVSPost2010Prop57
140
1.0
102
RTVSPost2010PropOp57
 70
     0
  0
XRECORD
  5
55B
102
{ACAD_REACTORS
330
55A
102
}
330
55A
100
AcDbXrecord
280
     1
102
RTVSPost2010Prop28
280
     0
102
RTVSPost2010PropOp28
 70
     1
102
RTVSPost2010Prop29
280
     1
102
RTVSPost2010PropOp29
 70
     1
102
RTVSPost2010Prop30
280
     1
102
RTVSPost2010PropOp30
 70
     1
102
RTVSPost2010Prop31
280
     0
102
RTVSPost2010PropOp31
 70
     1
102
RTVSPost2010Prop32
280
     0
102
RTVSPost2010PropOp32
 70
     1
102
RTVSPost2010Prop33
280
     0
102
RTVSPost2010PropOp33
 70
     1
102
RTVSPost2010Prop34
280
     0
102
RTVSPost2010PropOp34
 70
     1
102
RTVSPost2010Prop35
280
     0
102
RTVSPost2010PropOp35
 70
     1
102
RTVSPost2010Prop36
280
     0
102
RTVSPost2010PropOp36
 70
     1
102
RTVSPost2010Prop37
 90
       50
102
RTVSPost2010PropOp37
 70
     1
102
RTVSPost2010Prop38
140
0.0
102
RTVSPost2010PropOp38
 70
     1
102
RTVSPost2010Prop39
140
1.0
102
RTVSPost2010PropOp39
 70
     1
102
RTVSPost2010Prop40
 90
        0
102
RTVSPost2010PropOp40
 70
     1
102
RTVSPost2010Prop41ColorIndex
 90
       18
102
RTVSPost2010Prop41ColorRGB
 90
-16777216
102
RTVSPost2010PropOp41
 70
     1
102
RTVSPost2010Prop42
 90
       50
102
RTVSPost2010PropOp42
 70
     1
102
RTVSPost2010Prop43
 90
        3
102
RTVSPost2010PropOp43
 70
     1
102
RTVSPost2010Prop44ColorIndex
 90
        5
102
RTVSPost2010Prop44ColorRGB
 90
      255
102
RTVSPost2010PropOp44
 70
     1
102
RTVSPost2010Prop45
280
     0
102
RTVSPost2010PropOp45
 70
     1
102
RTVSPost2010Prop46
 90
       50
102
RTVSPost2010PropOp46
 70
     1
102
RTVSPost2010Prop47
 90
       50
102
RTVSPost2010PropOp47
 70
     1
102
RTVSPost2010Prop48
 90
       50
102
RTVSPost2010PropOp48
 70
     1
102
RTVSPost2010Prop49
280
     0
102
RTVSPost2010PropOp49
 70
     1
102
RTVSPost2010Prop50
 90
       50
102
RTVSPost2010PropOp50
 70
     1
102
RTVSPost2010Prop51ColorIndex
 90
      256
102
RTVSPost2010Prop51ColorRGB
 90
-16777216
102
RTVSPost2010PropOp51
 70
     0
102
RTVSPost2010Prop52
140
1.0
102
RTVSPost2010PropOp52
 70
     0
102
RTVSPost2010Prop53
 90
        2
102
RTVSPost2010PropOp53
 70
     1
102
RTVSPost2010Prop54
  1
strokes_ogs.tif
102
RTVSPost2010PropOp54
 70
     1
102
RTVSPost2010Prop55
280
     0
102
RTVSPost2010PropOp55
 70
     1
102
RTVSPost2010Prop56
140
1.0
102
RTVSPost2010PropOp56
 70
     1
102
RTVSPost2010Prop57
140
1.0
102
RTVSPost2010PropOp57
 70
     1
  0
XRECORD
  5
53F
102
{ACAD_REACTORS
330
53E
102
}
330
53E
100
AcDbXrecord
280
     1
102
RTVSPost2010Prop28
280
     0
102
RTVSPost2010PropOp28
 70
     1
102
RTVSPost2010Prop29
280
     1
102
RTVSPost2010PropOp29
 70
     1
102
RTVSPost2010Prop30
280
     1
102
RTVSPost2010PropOp30
 70
     1
102
RTVSPost2010Prop31
280
     0
102
RTVSPost2010PropOp31
 70
     1
102
RTVSPost2010Prop32
280
     0
102
RTVSPost2010PropOp32
 70
     1
102
RTVSPost2010Prop33
280
     0
102
RTVSPost2010PropOp33
 70
     1
102
RTVSPost2010Prop34
280
     0
102
RTVSPost2010PropOp34
 70
     1
102
RTVSPost2010Prop35
280
     0
102
RTVSPost2010PropOp35
 70
     1
102
RTVSPost2010Prop36
280
     0
102
RTVSPost2010PropOp36
 70
     1
102
RTVSPost2010Prop37
 90
       50
102
RTVSPost2010PropOp37
 70
     1
102
RTVSPost2010Prop38
140
0.0
102
RTVSPost2010PropOp38
 70
     1
102
RTVSPost2010Prop39
140
1.0
102
RTVSPost2010PropOp39
 70
     1
102
RTVSPost2010Prop40
 90
        0
102
RTVSPost2010PropOp40
 70
     1
102
RTVSPost2010Prop41ColorIndex
 90
       18
102
RTVSPost2010Prop41ColorRGB
 90
-16777216
102
RTVSPost2010PropOp41
 70
     1
102
RTVSPost2010Prop42
 90
       50
102
RTVSPost2010PropOp42
 70
     1
102
RTVSPost2010Prop43
 90
        3
102
RTVSPost2010PropOp43
 70
     1
102
RTVSPost2010Prop44ColorIndex
 90
        5
102
RTVSPost2010Prop44ColorRGB
 90
      255
102
RTVSPost2010PropOp44
 70
     1
102
RTVSPost2010Prop45
280
     0
102
RTVSPost2010PropOp45
 70
     1
102
RTVSPost2010Prop46
 90
       50
102
RTVSPost2010PropOp46
 70
     1
102
RTVSPost2010Prop47
 90
       50
102
RTVSPost2010PropOp47
 70
     1
102
RTVSPost2010Prop48
 90
       50
102
RTVSPost2010PropOp48
 70
     1
102
RTVSPost2010Prop49
280
     0
102
RTVSPost2010PropOp49
 70
     1
102
RTVSPost2010Prop50
 90
       50
102
RTVSPost2010PropOp50
 70
     1
102
RTVSPost2010Prop51ColorIndex
 90
      256
102
RTVSPost2010Prop51ColorRGB
 90
-16777216
102
RTVSPost2010PropOp51
 70
     0
102
RTVSPost2010Prop52
140
1.0
102
RTVSPost2010PropOp52
 70
     0
102
RTVSPost2010Prop53
 90
        2
102
RTVSPost2010PropOp53
 70
     1
102
RTVSPost2010Prop54
  1
strokes_ogs.tif
102
RTVSPost2010PropOp54
 70
     1
102
RTVSPost2010Prop55
280
     0
102
RTVSPost2010PropOp55
 70
     1
102
RTVSPost2010Prop56
140
1.0
102
RTVSPost2010PropOp56
 70
     1
102
RTVSPost2010Prop57
140
1.0
102
RTVSPost2010PropOp57
 70
     1
  0
XRECORD
  5
541
102
{ACAD_REACTORS
330
540
102
}
330
540
100
AcDbXrecord
280
     1
102
RTVSPost2010Prop28
280
     0
102
RTVSPost2010PropOp28
 70
     1
102
RTVSPost2010Prop29
280
     1
102
RTVSPost2010PropOp29
 70
     1
102
RTVSPost2010Prop30
280
     1
102
RTVSPost2010PropOp30
 70
     1
102
RTVSPost2010Prop31
280
     0
102
RTVSPost2010PropOp31
 70
     1
102
RTVSPost2010Prop32
280
     0
102
RTVSPost2010PropOp32
 70
     1
102
RTVSPost2010Prop33
280
     0
102
RTVSPost2010PropOp33
 70
     1
102
RTVSPost2010Prop34
280
     0
102
RTVSPost2010PropOp34
 70
     1
102
RTVSPost2010Prop35
280
     0
102
RTVSPost2010PropOp35
 70
     1
102
RTVSPost2010Prop36
280
     0
102
RTVSPost2010PropOp36
 70
     1
102
RTVSPost2010Prop37
 90
       50
102
RTVSPost2010PropOp37
 70
     1
102
RTVSPost2010Prop38
140
0.0
102
RTVSPost2010PropOp38
 70
     1
102
RTVSPost2010Prop39
140
1.0
102
RTVSPost2010PropOp39
 70
     1
102
RTVSPost2010Prop40
 90
        0
102
RTVSPost2010PropOp40
 70
     1
102
RTVSPost2010Prop41ColorIndex
 90
       18
102
RTVSPost2010Prop41ColorRGB
 90
-16777216
102
RTVSPost2010PropOp41
 70
     1
102
RTVSPost2010Prop42
 90
       50
102
RTVSPost2010PropOp42
 70
     1
102
RTVSPost2010Prop43
 90
        3
102
RTVSPost2010PropOp43
 70
     1
102
RTVSPost2010Prop44ColorIndex
 90
        5
102
RTVSPost2010Prop44ColorRGB
 90
      255
102
RTVSPost2010PropOp44
 70
     1
102
RTVSPost2010Prop45
280
     0
102
RTVSPost2010PropOp45
 70
     1
102
RTVSPost2010Prop46
 90
       50
102
RTVSPost2010PropOp46
 70
     1
102
RTVSPost2010Prop47
 90
       50
102
RTVSPost2010PropOp47
 70
     1
102
RTVSPost2010Prop48
 90
       50
102
RTVSPost2010PropOp48
 70
     1
102
RTVSPost2010Prop49
280
     0
102
RTVSPost2010PropOp49
 70
     1
102
RTVSPost2010Prop50
 90
       50
102
RTVSPost2010PropOp50
 70
     1
102
RTVSPost2010Prop51ColorIndex
 90
      256
102
RTVSPost2010Prop51ColorRGB
 90
-16777216
102
RTVSPost2010PropOp51
 70
     0
102
RTVSPost2010Prop52
140
1.0
102
RTVSPost2010PropOp52
 70
     0
102
RTVSPost2010Prop53
 90
        2
102
RTVSPost2010PropOp53
 70
     1
102
RTVSPost2010Prop54
  1
strokes_ogs.tif
102
RTVSPost2010PropOp54
 70
     1
102
RTVSPost2010Prop55
280
     0
102
RTVSPost2010PropOp55
 70
     1
102
RTVSPost2010Prop56
140
1.0
102
RTVSPost2010PropOp56
 70
     1
102
RTVSPost2010Prop57
140
1.0
102
RTVSPost2010PropOp57
 70
     1
  0
XRECORD
  5
543
102
{ACAD_REACTORS
330
542
102
}
330
542
100
AcDbXrecord
280
     1
102
RTVSPost2010Prop28
280
     0
102
RTVSPost2010PropOp28
 70
     1
102
RTVSPost2010Prop29
280
     1
102
RTVSPost2010PropOp29
 70
     1
102
RTVSPost2010Prop30
280
     1
102
RTVSPost2010PropOp30
 70
     1
102
RTVSPost2010Prop31
280
     0
102
RTVSPost2010PropOp31
 70
     1
102
RTVSPost2010Prop32
280
     0
102
RTVSPost2010PropOp32
 70
     1
102
RTVSPost2010Prop33
280
     0
102
RTVSPost2010PropOp33
 70
     1
102
RTVSPost2010Prop34
280
     0
102
RTVSPost2010PropOp34
 70
     1
102
RTVSPost2010Prop35
280
     0
102
RTVSPost2010PropOp35
 70
     1
102
RTVSPost2010Prop36
280
     0
102
RTVSPost2010PropOp36
 70
     1
102
RTVSPost2010Prop37
 90
       50
102
RTVSPost2010PropOp37
 70
     1
102
RTVSPost2010Prop38
140
0.0
102
RTVSPost2010PropOp38
 70
     1
102
RTVSPost2010Prop39
140
1.0
102
RTVSPost2010PropOp39
 70
     1
102
RTVSPost2010Prop40
 90
        0
102
RTVSPost2010PropOp40
 70
     1
102
RTVSPost2010Prop41ColorIndex
 90
       18
102
RTVSPost2010Prop41ColorRGB
 90
-16777216
102
RTVSPost2010PropOp41
 70
     1
102
RTVSPost2010Prop42
 90
       50
102
RTVSPost2010PropOp42
 70
     1
102
RTVSPost2010Prop43
 90
        3
102
RTVSPost2010PropOp43
 70
     1
102
RTVSPost2010Prop44ColorIndex
 90
        5
102
RTVSPost2010Prop44ColorRGB
 90
      255
102
RTVSPost2010PropOp44
 70
     1
102
RTVSPost2010Prop45
280
     0
102
RTVSPost2010PropOp45
 70
     1
102
RTVSPost2010Prop46
 90
       50
102
RTVSPost2010PropOp46
 70
     1
102
RTVSPost2010Prop47
 90
       50
102
RTVSPost2010PropOp47
 70
     1
102
RTVSPost2010Prop48
 90
       50
102
RTVSPost2010PropOp48
 70
     1
102
RTVSPost2010Prop49
280
     0
102
RTVSPost2010PropOp49
 70
     1
102
RTVSPost2010Prop50
 90
       50
102
RTVSPost2010PropOp50
 70
     1
102
RTVSPost2010Prop51ColorIndex
 90
      256
102
RTVSPost2010Prop51ColorRGB
 90
-16777216
102
RTVSPost2010PropOp51
 70
     0
102
RTVSPost2010Prop52
140
1.0
102
RTVSPost2010PropOp52
 70
     0
102
RTVSPost2010Prop53
 90
        2
102
RTVSPost2010PropOp53
 70
     1
102
RTVSPost2010Prop54
  1
strokes_ogs.tif
102
RTVSPost2010PropOp54
 70
     1
102
RTVSPost2010Prop55
280
     0
102
RTVSPost2010PropOp55
 70
     1
102
RTVSPost2010Prop56
140
1.0
102
RTVSPost2010PropOp56
 70
     1
102
RTVSPost2010Prop57
140
1.0
102
RTVSPost2010PropOp57
 70
     1
  0
XRECORD
  5
545
102
{ACAD_REACTORS
330
544
102
}
330
544
100
AcDbXrecord
280
     1
102
RTVSPost2010Prop28
280
     0
102
RTVSPost2010PropOp28
 70
     1
102
RTVSPost2010Prop29
280
     1
102
RTVSPost2010PropOp29
 70
     1
102
RTVSPost2010Prop30
280
     1
102
RTVSPost2010PropOp30
 70
     1
102
RTVSPost2010Prop31
280
     0
102
RTVSPost2010PropOp31
 70
     1
102
RTVSPost2010Prop32
280
     0
102
RTVSPost2010PropOp32
 70
     1
102
RTVSPost2010Prop33
280
     0
102
RTVSPost2010PropOp33
 70
     1
102
RTVSPost2010Prop34
280
     0
102
RTVSPost2010PropOp34
 70
     1
102
RTVSPost2010Prop35
280
     0
102
RTVSPost2010PropOp35
 70
     1
102
RTVSPost2010Prop36
280
     0
102
RTVSPost2010PropOp36
 70
     1
102
RTVSPost2010Prop37
 90
       50
102
RTVSPost2010PropOp37
 70
     1
102
RTVSPost2010Prop38
140
0.0
102
RTVSPost2010PropOp38
 70
     1
102
RTVSPost2010Prop39
140
1.0
102
RTVSPost2010PropOp39
 70
     1
102
RTVSPost2010Prop40
 90
        0
102
RTVSPost2010PropOp40
 70
     1
102
RTVSPost2010Prop41ColorIndex
 90
       18
102
RTVSPost2010Prop41ColorRGB
 90
-16777216
102
RTVSPost2010PropOp41
 70
     1
102
RTVSPost2010Prop42
 90
       50
102
RTVSPost2010PropOp42
 70
     1
102
RTVSPost2010Prop43
 90
        3
102
RTVSPost2010PropOp43
 70
     1
102
RTVSPost2010Prop44ColorIndex
 90
        5
102
RTVSPost2010Prop44ColorRGB
 90
      255
102
RTVSPost2010PropOp44
 70
     1
102
RTVSPost2010Prop45
280
     0
102
RTVSPost2010PropOp45
 70
     1
102
RTVSPost2010Prop46
 90
       50
102
RTVSPost2010PropOp46
 70
     1
102
RTVSPost2010Prop47
 90
       50
102
RTVSPost2010PropOp47
 70
     1
102
RTVSPost2010Prop48
 90
       50
102
RTVSPost2010PropOp48
 70
     1
102
RTVSPost2010Prop49
280
     0
102
RTVSPost2010PropOp49
 70
     1
102
RTVSPost2010Prop50
 90
       50
102
RTVSPost2010PropOp50
 70
     1
102
RTVSPost2010Prop51ColorIndex
 90
      256
102
RTVSPost2010Prop51ColorRGB
 90
-16777216
102
RTVSPost2010PropOp51
 70
     0
102
RTVSPost2010Prop52
140
1.0
102
RTVSPost2010PropOp52
 70
     0
102
RTVSPost2010Prop53
 90
        2
102
RTVSPost2010PropOp53
 70
     1
102
RTVSPost2010Prop54
  1
strokes_ogs.tif
102
RTVSPost2010PropOp54
 70
     1
102
RTVSPost2010Prop55
280
     0
102
RTVSPost2010PropOp55
 70
     1
102
RTVSPost2010Prop56
140
1.0
102
RTVSPost2010PropOp56
 70
     1
102
RTVSPost2010Prop57
140
1.0
102
RTVSPost2010PropOp57
 70
     1
  0
XRECORD
  5
54D
102
{ACAD_REACTORS
330
54C
102
}
330
54C
100
AcDbXrecord
280
     1
102
RTVSPost2010Prop28
280
     0
102
RTVSPost2010PropOp28
 70
     1
102
RTVSPost2010Prop29
280
     1
102
RTVSPost2010PropOp29
 70
     1
102
RTVSPost2010Prop30
280
     1
102
RTVSPost2010PropOp30
 70
     1
102
RTVSPost2010Prop31
280
     0
102
RTVSPost2010PropOp31
 70
     1
102
RTVSPost2010Prop32
280
     0
102
RTVSPost2010PropOp32
 70
     1
102
RTVSPost2010Prop33
280
     0
102
RTVSPost2010PropOp33
 70
     1
102
RTVSPost2010Prop34
280
     0
102
RTVSPost2010PropOp34
 70
     1
102
RTVSPost2010Prop35
280
     0
102
RTVSPost2010PropOp35
 70
     1
102
RTVSPost2010Prop36
280
     0
102
RTVSPost2010PropOp36
 70
     1
102
RTVSPost2010Prop37
 90
       50
102
RTVSPost2010PropOp37
 70
     1
102
RTVSPost2010Prop38
140
0.0
102
RTVSPost2010PropOp38
 70
     1
102
RTVSPost2010Prop39
140
1.0
102
RTVSPost2010PropOp39
 70
     1
102
RTVSPost2010Prop40
 90
        0
102
RTVSPost2010PropOp40
 70
     1
102
RTVSPost2010Prop41ColorIndex
 90
       18
102
RTVSPost2010Prop41ColorRGB
 90
-16777216
102
RTVSPost2010PropOp41
 70
     1
102
RTVSPost2010Prop42
 90
       50
102
RTVSPost2010PropOp42
 70
     1
102
RTVSPost2010Prop43
 90
        3
102
RTVSPost2010PropOp43
 70
     1
102
RTVSPost2010Prop44ColorIndex
 90
        5
102
RTVSPost2010Prop44ColorRGB
 90
      255
102
RTVSPost2010PropOp44
 70
     1
102
RTVSPost2010Prop45
280
     0
102
RTVSPost2010PropOp45
 70
     1
102
RTVSPost2010Prop46
 90
       50
102
RTVSPost2010PropOp46
 70
     1
102
RTVSPost2010Prop47
 90
       50
102
RTVSPost2010PropOp47
 70
     1
102
RTVSPost2010Prop48
 90
       50
102
RTVSPost2010PropOp48
 70
     1
102
RTVSPost2010Prop49
280
     0
102
RTVSPost2010PropOp49
 70
     1
102
RTVSPost2010Prop50
 90
       50
102
RTVSPost2010PropOp50
 70
     1
102
RTVSPost2010Prop51ColorIndex
 90
      256
102
RTVSPost2010Prop51ColorRGB
 90
-16777216
102
RTVSPost2010PropOp51
 70
     0
102
RTVSPost2010Prop52
140
1.0
102
RTVSPost2010PropOp52
 70
     0
102
RTVSPost2010Prop53
 90
        2
102
RTVSPost2010PropOp53
 70
     1
102
RTVSPost2010Prop54
  1
strokes_ogs.tif
102
RTVSPost2010PropOp54
 70
     1
102
RTVSPost2010Prop55
280
     0
102
RTVSPost2010PropOp55
 70
     1
102
RTVSPost2010Prop56
140
1.0
102
RTVSPost2010PropOp56
 70
     1
102
RTVSPost2010Prop57
140
1.0
102
RTVSPost2010PropOp57
 70
     1
  0
XRECORD
  5
569
102
{ACAD_REACTORS
330
568
102
}
330
568
100
AcDbXrecord
280
     1
102
RTVSPost2010Prop28
280
     0
102
RTVSPost2010PropOp28
 70
     1
102
RTVSPost2010Prop29
280
     1
102
RTVSPost2010PropOp29
 70
     1
102
RTVSPost2010Prop30
280
     1
102
RTVSPost2010PropOp30
 70
     1
102
RTVSPost2010Prop31
280
     0
102
RTVSPost2010PropOp31
 70
     1
102
RTVSPost2010Prop32
280
     0
102
RTVSPost2010PropOp32
 70
     1
102
RTVSPost2010Prop33
280
     0
102
RTVSPost2010PropOp33
 70
     1
102
RTVSPost2010Prop34
280
     0
102
RTVSPost2010PropOp34
 70
     1
102
RTVSPost2010Prop35
280
     0
102
RTVSPost2010PropOp35
 70
     1
102
RTVSPost2010Prop36
280
     0
102
RTVSPost2010PropOp36
 70
     1
102
RTVSPost2010Prop37
 90
       50
102
RTVSPost2010PropOp37
 70
     0
102
RTVSPost2010Prop38
140
0.0
102
RTVSPost2010PropOp38
 70
     0
102
RTVSPost2010Prop39
140
1.0
102
RTVSPost2010PropOp39
 70
     0
102
RTVSPost2010Prop40
 90
        0
102
RTVSPost2010PropOp40
 70
     0
102
RTVSPost2010Prop41ColorIndex
 90
       18
102
RTVSPost2010Prop41ColorRGB
 90
-16777216
102
RTVSPost2010PropOp41
 70
     0
102
RTVSPost2010Prop42
 90
       50
102
RTVSPost2010PropOp42
 70
     0
102
RTVSPost2010Prop43
 90
        3
102
RTVSPost2010PropOp43
 70
     0
102
RTVSPost2010Prop44ColorIndex
 90
        5
102
RTVSPost2010Prop44ColorRGB
 90
      255
102
RTVSPost2010PropOp44
 70
     0
102
RTVSPost2010Prop45
280
     0
102
RTVSPost2010PropOp45
 70
     1
102
RTVSPost2010Prop46
 90
       50
102
RTVSPost2010PropOp46
 70
     0
102
RTVSPost2010Prop47
 90
       50
102
RTVSPost2010PropOp47
 70
     0
102
RTVSPost2010Prop48
 90
       50
102
RTVSPost2010PropOp48
 70
     0
102
RTVSPost2010Prop49
280
     0
102
RTVSPost2010PropOp49
 70
     1
102
RTVSPost2010Prop50
 90
       50
102
RTVSPost2010PropOp50
 70
     0
102
RTVSPost2010Prop51ColorIndex
 90
      256
102
RTVSPost2010Prop51ColorRGB
 90
-16777216
102
RTVSPost2010PropOp51
 70
     0
102
RTVSPost2010Prop52
140
1.0
102
RTVSPost2010PropOp52
 70
     0
102
RTVSPost2010Prop53
 90
        2
102
RTVSPost2010PropOp53
 70
     0
102
RTVSPost2010Prop54
  1
strokes_ogs.tif
102
RTVSPost2010PropOp54
 70
     0
102
RTVSPost2010Prop55
280
     0
102
RTVSPost2010PropOp55
 70
     1
102
RTVSPost2010Prop56
140
1.0
102
RTVSPost2010PropOp56
 70
     0
102
RTVSPost2010Prop57
140
1.0
102
RTVSPost2010PropOp57
 70
     0
  0
XRECORD
  5
559
102
{ACAD_REACTORS
330
558
102
}
330
558
100
AcDbXrecord
280
     1
102
RTVSPost2010Prop28
280
     0
102
RTVSPost2010PropOp28
 70
     1
102
RTVSPost2010Prop29
280
     1
102
RTVSPost2010PropOp29
 70
     1
102
RTVSPost2010Prop30
280
     1
102
RTVSPost2010PropOp30
 70
     1
102
RTVSPost2010Prop31
280
     0
102
RTVSPost2010PropOp31
 70
     1
102
RTVSPost2010Prop32
280
     0
102
RTVSPost2010PropOp32
 70
     1
102
RTVSPost2010Prop33
280
     0
102
RTVSPost2010PropOp33
 70
     1
102
RTVSPost2010Prop34
280
     0
102
RTVSPost2010PropOp34
 70
     1
102
RTVSPost2010Prop35
280
     0
102
RTVSPost2010PropOp35
 70
     1
102
RTVSPost2010Prop36
280
     0
102
RTVSPost2010PropOp36
 70
     1
102
RTVSPost2010Prop37
 90
       50
102
RTVSPost2010PropOp37
 70
     1
102
RTVSPost2010Prop38
140
0.0
102
RTVSPost2010PropOp38
 70
     1
102
RTVSPost2010Prop39
140
1.0
102
RTVSPost2010PropOp39
 70
     1
102
RTVSPost2010Prop40
 90
        0
102
RTVSPost2010PropOp40
 70
     1
102
RTVSPost2010Prop41ColorIndex
 90
       18
102
RTVSPost2010Prop41ColorRGB
 90
-16777216
102
RTVSPost2010PropOp41
 70
     1
102
RTVSPost2010Prop42
 90
       50
102
RTVSPost2010PropOp42
 70
     1
102
RTVSPost2010Prop43
 90
        3
102
RTVSPost2010PropOp43
 70
     1
102
RTVSPost2010Prop44ColorIndex
 90
        5
102
RTVSPost2010Prop44ColorRGB
 90
      255
102
RTVSPost2010PropOp44
 70
     1
102
RTVSPost2010Prop45
280
     0
102
RTVSPost2010PropOp45
 70
     1
102
RTVSPost2010Prop46
 90
       50
102
RTVSPost2010PropOp46
 70
     1
102
RTVSPost2010Prop47
 90
       50
102
RTVSPost2010PropOp47
 70
     1
102
RTVSPost2010Prop48
 90
       50
102
RTVSPost2010PropOp48
 70
     1
102
RTVSPost2010Prop49
280
     0
102
RTVSPost2010PropOp49
 70
     1
102
RTVSPost2010Prop50
 90
       50
102
RTVSPost2010PropOp50
 70
     1
102
RTVSPost2010Prop51ColorIndex
 90
      256
102
RTVSPost2010Prop51ColorRGB
 90
-16777216
102
RTVSPost2010PropOp51
 70
     0
102
RTVSPost2010Prop52
140
1.0
102
RTVSPost2010PropOp52
 70
     0
102
RTVSPost2010Prop53
 90
        2
102
RTVSPost2010PropOp53
 70
     1
102
RTVSPost2010Prop54
  1
strokes_ogs.tif
102
RTVSPost2010PropOp54
 70
     1
102
RTVSPost2010Prop55
280
     0
102
RTVSPost2010PropOp55
 70
     1
102
RTVSPost2010Prop56
140
1.0
102
RTVSPost2010PropOp56
 70
     1
102
RTVSPost2010Prop57
140
1.0
102
RTVSPost2010PropOp57
 70
     1
  0
XRECORD
  5
56B
102
{ACAD_REACTORS
330
56A
102
}
330
56A
100
AcDbXrecord
280
     1
102
RTVSPost2010Prop28
280
     0
102
RTVSPost2010PropOp28
 70
     1
102
RTVSPost2010Prop29
280
     1
102
RTVSPost2010PropOp29
 70
     1
102
RTVSPost2010Prop30
280
     1
102
RTVSPost2010PropOp30
 70
     1
102
RTVSPost2010Prop31
280
     0
102
RTVSPost2010PropOp31
 70
     1
102
RTVSPost2010Prop32
280
     0
102
RTVSPost2010PropOp32
 70
     1
102
RTVSPost2010Prop33
280
     0
102
RTVSPost2010PropOp33
 70
     1
102
RTVSPost2010Prop34
280
     0
102
RTVSPost2010PropOp34
 70
     1
102
RTVSPost2010Prop35
280
     0
102
RTVSPost2010PropOp35
 70
     1
102
RTVSPost2010Prop36
280
     0
102
RTVSPost2010PropOp36
 70
     1
102
RTVSPost2010Prop37
 90
       50
102
RTVSPost2010PropOp37
 70
     0
102
RTVSPost2010Prop38
140
0.0
102
RTVSPost2010PropOp38
 70
     0
102
RTVSPost2010Prop39
140
1.0
102
RTVSPost2010PropOp39
 70
     0
102
RTVSPost2010Prop40
 90
        0
102
RTVSPost2010PropOp40
 70
     0
102
RTVSPost2010Prop41ColorIndex
 90
       18
102
RTVSPost2010Prop41ColorRGB
 90
-16777216
102
RTVSPost2010PropOp41
 70
     0
102
RTVSPost2010Prop42
 90
       50
102
RTVSPost2010PropOp42
 70
     0
102
RTVSPost2010Prop43
 90
        3
102
RTVSPost2010PropOp43
 70
     0
102
RTVSPost2010Prop44ColorIndex
 90
        5
102
RTVSPost2010Prop44ColorRGB
 90
      255
102
RTVSPost2010PropOp44
 70
     0
102
RTVSPost2010Prop45
280
     0
102
RTVSPost2010PropOp45
 70
     1
102
RTVSPost2010Prop46
 90
       50
102
RTVSPost2010PropOp46
 70
     0
102
RTVSPost2010Prop47
 90
       50
102
RTVSPost2010PropOp47
 70
     0
102
RTVSPost2010Prop48
 90
       50
102
RTVSPost2010PropOp48
 70
     0
102
RTVSPost2010Prop49
280
     0
102
RTVSPost2010PropOp49
 70
     1
102
RTVSPost2010Prop50
 90
       50
102
RTVSPost2010PropOp50
 70
     0
102
RTVSPost2010Prop51ColorIndex
 90
      256
102
RTVSPost2010Prop51ColorRGB
 90
-16777216
102
RTVSPost2010PropOp51
 70
     0
102
RTVSPost2010Prop52
140
1.0
102
RTVSPost2010PropOp52
 70
     0
102
RTVSPost2010Prop53
 90
        2
102
RTVSPost2010PropOp53
 70
     0
102
RTVSPost2010Prop54
  1
strokes_ogs.tif
102
RTVSPost2010PropOp54
 70
     0
102
RTVSPost2010Prop55
280
     0
102
RTVSPost2010PropOp55
 70
     1
102
RTVSPost2010Prop56
140
1.0
102
RTVSPost2010PropOp56
 70
     0
102
RTVSPost2010Prop57
140
1.0
102
RTVSPost2010PropOp57
 70
     0
  0
XRECORD
  5
551
102
{ACAD_REACTORS
330
550
102
}
330
550
100
AcDbXrecord
280
     1
102
RTVSPost2010Prop28
280
     0
102
RTVSPost2010PropOp28
 70
     1
102
RTVSPost2010Prop29
280
     1
102
RTVSPost2010PropOp29
 70
     1
102
RTVSPost2010Prop30
280
     1
102
RTVSPost2010PropOp30
 70
     1
102
RTVSPost2010Prop31
280
     0
102
RTVSPost2010PropOp31
 70
     1
102
RTVSPost2010Prop32
280
     0
102
RTVSPost2010PropOp32
 70
     1
102
RTVSPost2010Prop33
280
     0
102
RTVSPost2010PropOp33
 70
     1
102
RTVSPost2010Prop34
280
     0
102
RTVSPost2010PropOp34
 70
     1
102
RTVSPost2010Prop35
280
     0
102
RTVSPost2010PropOp35
 70
     1
102
RTVSPost2010Prop36
280
     0
102
RTVSPost2010PropOp36
 70
     1
102
RTVSPost2010Prop37
 90
       50
102
RTVSPost2010PropOp37
 70
     1
102
RTVSPost2010Prop38
140
0.0
102
RTVSPost2010PropOp38
 70
     1
102
RTVSPost2010Prop39
140
1.0
102
RTVSPost2010PropOp39
 70
     1
102
RTVSPost2010Prop40
 90
        0
102
RTVSPost2010PropOp40
 70
     1
102
RTVSPost2010Prop41ColorIndex
 90
       18
102
RTVSPost2010Prop41ColorRGB
 90
-16777216
102
RTVSPost2010PropOp41
 70
     1
102
RTVSPost2010Prop42
 90
       50
102
RTVSPost2010PropOp42
 70
     1
102
RTVSPost2010Prop43
 90
        3
102
RTVSPost2010PropOp43
 70
     1
102
RTVSPost2010Prop44ColorIndex
 90
        5
102
RTVSPost2010Prop44ColorRGB
 90
      255
102
RTVSPost2010PropOp44
 70
     1
102
RTVSPost2010Prop45
280
     0
102
RTVSPost2010PropOp45
 70
     1
102
RTVSPost2010Prop46
 90
       50
102
RTVSPost2010PropOp46
 70
     1
102
RTVSPost2010Prop47
 90
       50
102
RTVSPost2010PropOp47
 70
     1
102
RTVSPost2010Prop48
 90
       50
102
RTVSPost2010PropOp48
 70
     1
102
RTVSPost2010Prop49
280
     0
102
RTVSPost2010PropOp49
 70
     1
102
RTVSPost2010Prop50
 90
       50
102
RTVSPost2010PropOp50
 70
     1
102
RTVSPost2010Prop51ColorIndex
 90
      256
102
RTVSPost2010Prop51ColorRGB
 90
-16777216
102
RTVSPost2010PropOp51
 70
     0
102
RTVSPost2010Prop52
140
1.0
102
RTVSPost2010PropOp52
 70
     0
102
RTVSPost2010Prop53
 90
        2
102
RTVSPost2010PropOp53
 70
     1
102
RTVSPost2010Prop54
  1
strokes_ogs.tif
102
RTVSPost2010PropOp54
 70
     1
102
RTVSPost2010Prop55
280
     0
102
RTVSPost2010PropOp55
 70
     1
102
RTVSPost2010Prop56
140
1.0
102
RTVSPost2010PropOp56
 70
     1
102
RTVSPost2010Prop57
140
1.0
102
RTVSPost2010PropOp57
 70
     1
  0
XRECORD
  5
567
102
{ACAD_REACTORS
330
566
102
}
330
566
100
AcDbXrecord
280
     1
102
RTVSPost2010Prop28
280
     0
102
RTVSPost2010PropOp28
 70
     1
102
RTVSPost2010Prop29
280
     1
102
RTVSPost2010PropOp29
 70
     1
102
RTVSPost2010Prop30
280
     1
102
RTVSPost2010PropOp30
 70
     1
102
RTVSPost2010Prop31
280
     0
102
RTVSPost2010PropOp31
 70
     1
102
RTVSPost2010Prop32
280
     0
102
RTVSPost2010PropOp32
 70
     1
102
RTVSPost2010Prop33
280
     0
102
RTVSPost2010PropOp33
 70
     1
102
RTVSPost2010Prop34
280
     0
102
RTVSPost2010PropOp34
 70
     1
102
RTVSPost2010Prop35
280
     0
102
RTVSPost2010PropOp35
 70
     1
102
RTVSPost2010Prop36
280
     0
102
RTVSPost2010PropOp36
 70
     1
102
RTVSPost2010Prop37
 90
       50
102
RTVSPost2010PropOp37
 70
     1
102
RTVSPost2010Prop38
140
0.0
102
RTVSPost2010PropOp38
 70
     1
102
RTVSPost2010Prop39
140
1.0
102
RTVSPost2010PropOp39
 70
     1
102
RTVSPost2010Prop40
 90
        0
102
RTVSPost2010PropOp40
 70
     1
102
RTVSPost2010Prop41ColorIndex
 90
       18
102
RTVSPost2010Prop41ColorRGB
 90
-16777216
102
RTVSPost2010PropOp41
 70
     1
102
RTVSPost2010Prop42
 90
       50
102
RTVSPost2010PropOp42
 70
     1
102
RTVSPost2010Prop43
 90
        3
102
RTVSPost2010PropOp43
 70
     1
102
RTVSPost2010Prop44ColorIndex
 90
        5
102
RTVSPost2010Prop44ColorRGB
 90
      255
102
RTVSPost2010PropOp44
 70
     1
102
RTVSPost2010Prop45
280
     0
102
RTVSPost2010PropOp45
 70
     1
102
RTVSPost2010Prop46
 90
       50
102
RTVSPost2010PropOp46
 70
     1
102
RTVSPost2010Prop47
 90
       50
102
RTVSPost2010PropOp47
 70
     1
102
RTVSPost2010Prop48
 90
       50
102
RTVSPost2010PropOp48
 70
     1
102
RTVSPost2010Prop49
280
     0
102
RTVSPost2010PropOp49
 70
     1
102
RTVSPost2010Prop50
 90
       50
102
RTVSPost2010PropOp50
 70
     1
102
RTVSPost2010Prop51ColorIndex
 90
      256
102
RTVSPost2010Prop51ColorRGB
 90
-16777216
102
RTVSPost2010PropOp51
 70
     0
102
RTVSPost2010Prop52
140
1.0
102
RTVSPost2010PropOp52
 70
     0
102
RTVSPost2010Prop53
 90
        2
102
RTVSPost2010PropOp53
 70
     1
102
RTVSPost2010Prop54
  1
strokes_ogs.tif
102
RTVSPost2010PropOp54
 70
     1
102
RTVSPost2010Prop55
280
     0
102
RTVSPost2010PropOp55
 70
     1
102
RTVSPost2010Prop56
140
1.0
102
RTVSPost2010PropOp56
 70
     1
102
RTVSPost2010Prop57
140
1.0
102
RTVSPost2010PropOp57
 70
     1
  0
XRECORD
  5
565
102
{ACAD_REACTORS
330
564
102
}
330
564
100
AcDbXrecord
280
     1
102
RTVSPost2010Prop28
280
     0
102
RTVSPost2010PropOp28
 70
     1
102
RTVSPost2010Prop29
280
     1
102
RTVSPost2010PropOp29
 70
     1
102
RTVSPost2010Prop30
280
     1
102
RTVSPost2010PropOp30
 70
     1
102
RTVSPost2010Prop31
280
     0
102
RTVSPost2010PropOp31
 70
     1
102
RTVSPost2010Prop32
280
     0
102
RTVSPost2010PropOp32
 70
     1
102
RTVSPost2010Prop33
280
     0
102
RTVSPost2010PropOp33
 70
     1
102
RTVSPost2010Prop34
280
     0
102
RTVSPost2010PropOp34
 70
     1
102
RTVSPost2010Prop35
280
     0
102
RTVSPost2010PropOp35
 70
     1
102
RTVSPost2010Prop36
280
     0
102
RTVSPost2010PropOp36
 70
     1
102
RTVSPost2010Prop37
 90
       50
102
RTVSPost2010PropOp37
 70
     1
102
RTVSPost2010Prop38
140
0.0
102
RTVSPost2010PropOp38
 70
     1
102
RTVSPost2010Prop39
140
1.0
102
RTVSPost2010PropOp39
 70
     1
102
RTVSPost2010Prop40
 90
        0
102
RTVSPost2010PropOp40
 70
     1
102
RTVSPost2010Prop41ColorIndex
 90
       18
102
RTVSPost2010Prop41ColorRGB
 90
-16777216
102
RTVSPost2010PropOp41
 70
     1
102
RTVSPost2010Prop42
 90
       50
102
RTVSPost2010PropOp42
 70
     1
102
RTVSPost2010Prop43
 90
        3
102
RTVSPost2010PropOp43
 70
     1
102
RTVSPost2010Prop44ColorIndex
 90
        5
102
RTVSPost2010Prop44ColorRGB
 90
      255
102
RTVSPost2010PropOp44
 70
     1
102
RTVSPost2010Prop45
280
     0
102
RTVSPost2010PropOp45
 70
     1
102
RTVSPost2010Prop46
 90
       50
102
RTVSPost2010PropOp46
 70
     1
102
RTVSPost2010Prop47
 90
       50
102
RTVSPost2010PropOp47
 70
     1
102
RTVSPost2010Prop48
 90
       50
102
RTVSPost2010PropOp48
 70
     1
102
RTVSPost2010Prop49
280
     0
102
RTVSPost2010PropOp49
 70
     1
102
RTVSPost2010Prop50
 90
       50
102
RTVSPost2010PropOp50
 70
     1
102
RTVSPost2010Prop51ColorIndex
 90
      256
102
RTVSPost2010Prop51ColorRGB
 90
-16777216
102
RTVSPost2010PropOp51
 70
     0
102
RTVSPost2010Prop52
140
1.0
102
RTVSPost2010PropOp52
 70
     0
102
RTVSPost2010Prop53
 90
        2
102
RTVSPost2010PropOp53
 70
     1
102
RTVSPost2010Prop54
  1
strokes_ogs.tif
102
RTVSPost2010PropOp54
 70
     1
102
RTVSPost2010Prop55
280
     0
102
RTVSPost2010PropOp55
 70
     1
102
RTVSPost2010Prop56
140
1.0
102
RTVSPost2010PropOp56
 70
     1
102
RTVSPost2010Prop57
140
1.0
102
RTVSPost2010PropOp57
 70
     1
  0
XRECORD
  5
55F
102
{ACAD_REACTORS
330
55E
102
}
330
55E
100
AcDbXrecord
280
     1
102
RTVSPost2010Prop28
280
     0
102
RTVSPost2010PropOp28
 70
     1
102
RTVSPost2010Prop29
280
     1
102
RTVSPost2010PropOp29
 70
     1
102
RTVSPost2010Prop30
280
     1
102
RTVSPost2010PropOp30
 70
     1
102
RTVSPost2010Prop31
280
     0
102
RTVSPost2010PropOp31
 70
     1
102
RTVSPost2010Prop32
280
     0
102
RTVSPost2010PropOp32
 70
     1
102
RTVSPost2010Prop33
280
     0
102
RTVSPost2010PropOp33
 70
     1
102
RTVSPost2010Prop34
280
     0
102
RTVSPost2010PropOp34
 70
     1
102
RTVSPost2010Prop35
280
     0
102
RTVSPost2010PropOp35
 70
     1
102
RTVSPost2010Prop36
280
     0
102
RTVSPost2010PropOp36
 70
     1
102
RTVSPost2010Prop37
 90
       50
102
RTVSPost2010PropOp37
 70
     1
102
RTVSPost2010Prop38
140
0.0
102
RTVSPost2010PropOp38
 70
     1
102
RTVSPost2010Prop39
140
1.0
102
RTVSPost2010PropOp39
 70
     1
102
RTVSPost2010Prop40
 90
        0
102
RTVSPost2010PropOp40
 70
     1
102
RTVSPost2010Prop41ColorIndex
 90
       18
102
RTVSPost2010Prop41ColorRGB
 90
-16777216
102
RTVSPost2010PropOp41
 70
     1
102
RTVSPost2010Prop42
 90
       50
102
RTVSPost2010PropOp42
 70
     1
102
RTVSPost2010Prop43
 90
        3
102
RTVSPost2010PropOp43
 70
     1
102
RTVSPost2010Prop44ColorIndex
 90
        5
102
RTVSPost2010Prop44ColorRGB
 90
      255
102
RTVSPost2010PropOp44
 70
     1
102
RTVSPost2010Prop45
280
     0
102
RTVSPost2010PropOp45
 70
     1
102
RTVSPost2010Prop46
 90
       50
102
RTVSPost2010PropOp46
 70
     1
102
RTVSPost2010Prop47
 90
       50
102
RTVSPost2010PropOp47
 70
     1
102
RTVSPost2010Prop48
 90
       50
102
RTVSPost2010PropOp48
 70
     1
102
RTVSPost2010Prop49
280
     0
102
RTVSPost2010PropOp49
 70
     1
102
RTVSPost2010Prop50
 90
       50
102
RTVSPost2010PropOp50
 70
     1
102
RTVSPost2010Prop51ColorIndex
 90
      256
102
RTVSPost2010Prop51ColorRGB
 90
-16777216
102
RTVSPost2010PropOp51
 70
     0
102
RTVSPost2010Prop52
140
1.0
102
RTVSPost2010PropOp52
 70
     0
102
RTVSPost2010Prop53
 90
        2
102
RTVSPost2010PropOp53
 70
     1
102
RTVSPost2010Prop54
  1
strokes_ogs.tif
102
RTVSPost2010PropOp54
 70
     1
102
RTVSPost2010Prop55
280
     0
102
RTVSPost2010PropOp55
 70
     1
102
RTVSPost2010Prop56
140
1.0
102
RTVSPost2010PropOp56
 70
     1
102
RTVSPost2010Prop57
140
1.0
102
RTVSPost2010PropOp57
 70
     1
  0
XRECORD
  5
561
102
{ACAD_REACTORS
330
560
102
}
330
560
100
AcDbXrecord
280
     1
102
RTVSPost2010Prop28
280
     0
102
RTVSPost2010PropOp28
 70
     1
102
RTVSPost2010Prop29
280
     1
102
RTVSPost2010PropOp29
 70
     1
102
RTVSPost2010Prop30
280
     1
102
RTVSPost2010PropOp30
 70
     1
102
RTVSPost2010Prop31
280
     0
102
RTVSPost2010PropOp31
 70
     1
102
RTVSPost2010Prop32
280
     0
102
RTVSPost2010PropOp32
 70
     1
102
RTVSPost2010Prop33
280
     0
102
RTVSPost2010PropOp33
 70
     1
102
RTVSPost2010Prop34
280
     0
102
RTVSPost2010PropOp34
 70
     1
102
RTVSPost2010Prop35
280
     0
102
RTVSPost2010PropOp35
 70
     1
102
RTVSPost2010Prop36
280
     0
102
RTVSPost2010PropOp36
 70
     1
102
RTVSPost2010Prop37
 90
       50
102
RTVSPost2010PropOp37
 70
     1
102
RTVSPost2010Prop38
140
0.0
102
RTVSPost2010PropOp38
 70
     1
102
RTVSPost2010Prop39
140
1.0
102
RTVSPost2010PropOp39
 70
     1
102
RTVSPost2010Prop40
 90
        0
102
RTVSPost2010PropOp40
 70
     1
102
RTVSPost2010Prop41ColorIndex
 90
       18
102
RTVSPost2010Prop41ColorRGB
 90
-16777216
102
RTVSPost2010PropOp41
 70
     1
102
RTVSPost2010Prop42
 90
       50
102
RTVSPost2010PropOp42
 70
     1
102
RTVSPost2010Prop43
 90
        3
102
RTVSPost2010PropOp43
 70
     1
102
RTVSPost2010Prop44ColorIndex
 90
        5
102
RTVSPost2010Prop44ColorRGB
 90
      255
102
RTVSPost2010PropOp44
 70
     1
102
RTVSPost2010Prop45
280
     0
102
RTVSPost2010PropOp45
 70
     1
102
RTVSPost2010Prop46
 90
       50
102
RTVSPost2010PropOp46
 70
     1
102
RTVSPost2010Prop47
 90
       50
102
RTVSPost2010PropOp47
 70
     1
102
RTVSPost2010Prop48
 90
       50
102
RTVSPost2010PropOp48
 70
     1
102
RTVSPost2010Prop49
280
     0
102
RTVSPost2010PropOp49
 70
     1
102
RTVSPost2010Prop50
 90
       50
102
RTVSPost2010PropOp50
 70
     1
102
RTVSPost2010Prop51ColorIndex
 90
      256
102
RTVSPost2010Prop51ColorRGB
 90
-16777216
102
RTVSPost2010PropOp51
 70
     0
102
RTVSPost2010Prop52
140
1.0
102
RTVSPost2010PropOp52
 70
     0
102
RTVSPost2010Prop53
 90
        2
102
RTVSPost2010PropOp53
 70
     1
102
RTVSPost2010Prop54
  1
strokes_ogs.tif
102
RTVSPost2010PropOp54
 70
     1
102
RTVSPost2010Prop55
280
     0
102
RTVSPost2010PropOp55
 70
     1
102
RTVSPost2010Prop56
140
1.0
102
RTVSPost2010PropOp56
 70
     1
102
RTVSPost2010Prop57
140
1.0
102
RTVSPost2010PropOp57
 70
     1
  0
XRECORD
  5
557
102
{ACAD_REACTORS
330
556
102
}
330
556
100
AcDbXrecord
280
     1
102
RTVSPost2010Prop28
280
     0
102
RTVSPost2010PropOp28
 70
     1
102
RTVSPost2010Prop29
280
     1
102
RTVSPost2010PropOp29
 70
     1
102
RTVSPost2010Prop30
280
     1
102
RTVSPost2010PropOp30
 70
     1
102
RTVSPost2010Prop31
280
     0
102
RTVSPost2010PropOp31
 70
     1
102
RTVSPost2010Prop32
280
     0
102
RTVSPost2010PropOp32
 70
     1
102
RTVSPost2010Prop33
280
     0
102
RTVSPost2010PropOp33
 70
     1
102
RTVSPost2010Prop34
280
     0
102
RTVSPost2010PropOp34
 70
     1
102
RTVSPost2010Prop35
280
     0
102
RTVSPost2010PropOp35
 70
     1
102
RTVSPost2010Prop36
280
     0
102
RTVSPost2010PropOp36
 70
     1
102
RTVSPost2010Prop37
 90
       50
102
RTVSPost2010PropOp37
 70
     1
102
RTVSPost2010Prop38
140
0.0
102
RTVSPost2010PropOp38
 70
     1
102
RTVSPost2010Prop39
140
1.0
102
RTVSPost2010PropOp39
 70
     1
102
RTVSPost2010Prop40
 90
        0
102
RTVSPost2010PropOp40
 70
     1
102
RTVSPost2010Prop41ColorIndex
 90
       18
102
RTVSPost2010Prop41ColorRGB
 90
-16777216
102
RTVSPost2010PropOp41
 70
     1
102
RTVSPost2010Prop42
 90
       50
102
RTVSPost2010PropOp42
 70
     1
102
RTVSPost2010Prop43
 90
        3
102
RTVSPost2010PropOp43
 70
     1
102
RTVSPost2010Prop44ColorIndex
 90
        5
102
RTVSPost2010Prop44ColorRGB
 90
      255
102
RTVSPost2010PropOp44
 70
     1
102
RTVSPost2010Prop45
280
     0
102
RTVSPost2010PropOp45
 70
     1
102
RTVSPost2010Prop46
 90
       50
102
RTVSPost2010PropOp46
 70
     1
102
RTVSPost2010Prop47
 90
       50
102
RTVSPost2010PropOp47
 70
     1
102
RTVSPost2010Prop48
 90
       50
102
RTVSPost2010PropOp48
 70
     1
102
RTVSPost2010Prop49
280
     0
102
RTVSPost2010PropOp49
 70
     1
102
RTVSPost2010Prop50
 90
       50
102
RTVSPost2010PropOp50
 70
     1
102
RTVSPost2010Prop51ColorIndex
 90
      256
102
RTVSPost2010Prop51ColorRGB
 90
-16777216
102
RTVSPost2010PropOp51
 70
     0
102
RTVSPost2010Prop52
140
1.0
102
RTVSPost2010PropOp52
 70
     0
102
RTVSPost2010Prop53
 90
        2
102
RTVSPost2010PropOp53
 70
     1
102
RTVSPost2010Prop54
  1
strokes_ogs.tif
102
RTVSPost2010PropOp54
 70
     1
102
RTVSPost2010Prop55
280
     0
102
RTVSPost2010PropOp55
 70
     1
102
RTVSPost2010Prop56
140
1.0
102
RTVSPost2010PropOp56
 70
     1
102
RTVSPost2010Prop57
140
1.0
102
RTVSPost2010PropOp57
 70
     1
  0
XRECORD
  5
54B
102
{ACAD_REACTORS
330
54A
102
}
330
54A
100
AcDbXrecord
280
     1
102
RTVSPost2010Prop28
280
     0
102
RTVSPost2010PropOp28
 70
     1
102
RTVSPost2010Prop29
280
     1
102
RTVSPost2010PropOp29
 70
     1
102
RTVSPost2010Prop30
280
     1
102
RTVSPost2010PropOp30
 70
     1
102
RTVSPost2010Prop31
280
     0
102
RTVSPost2010PropOp31
 70
     1
102
RTVSPost2010Prop32
280
     0
102
RTVSPost2010PropOp32
 70
     1
102
RTVSPost2010Prop33
280
     0
102
RTVSPost2010PropOp33
 70
     1
102
RTVSPost2010Prop34
280
     0
102
RTVSPost2010PropOp34
 70
     1
102
RTVSPost2010Prop35
280
     0
102
RTVSPost2010PropOp35
 70
     1
102
RTVSPost2010Prop36
280
     0
102
RTVSPost2010PropOp36
 70
     1
102
RTVSPost2010Prop37
 90
       50
102
RTVSPost2010PropOp37
 70
     1
102
RTVSPost2010Prop38
140
0.0
102
RTVSPost2010PropOp38
 70
     1
102
RTVSPost2010Prop39
140
1.0
102
RTVSPost2010PropOp39
 70
     1
102
RTVSPost2010Prop40
 90
        0
102
RTVSPost2010PropOp40
 70
     1
102
RTVSPost2010Prop41ColorIndex
 90
       18
102
RTVSPost2010Prop41ColorRGB
 90
-16777216
102
RTVSPost2010PropOp41
 70
     1
102
RTVSPost2010Prop42
 90
       50
102
RTVSPost2010PropOp42
 70
     1
102
RTVSPost2010Prop43
 90
        3
102
RTVSPost2010PropOp43
 70
     1
102
RTVSPost2010Prop44ColorIndex
 90
        5
102
RTVSPost2010Prop44ColorRGB
 90
      255
102
RTVSPost2010PropOp44
 70
     1
102
RTVSPost2010Prop45
280
     0
102
RTVSPost2010PropOp45
 70
     1
102
RTVSPost2010Prop46
 90
       50
102
RTVSPost2010PropOp46
 70
     1
102
RTVSPost2010Prop47
 90
       50
102
RTVSPost2010PropOp47
 70
     1
102
RTVSPost2010Prop48
 90
       50
102
RTVSPost2010PropOp48
 70
     1
102
RTVSPost2010Prop49
280
     0
102
RTVSPost2010PropOp49
 70
     1
102
RTVSPost2010Prop50
 90
       50
102
RTVSPost2010PropOp50
 70
     1
102
RTVSPost2010Prop51ColorIndex
 90
      256
102
RTVSPost2010Prop51ColorRGB
 90
-16777216
102
RTVSPost2010PropOp51
 70
     0
102
RTVSPost2010Prop52
140
1.0
102
RTVSPost2010PropOp52
 70
     0
102
RTVSPost2010Prop53
 90
        2
102
RTVSPost2010PropOp53
 70
     1
102
RTVSPost2010Prop54
  1
strokes_ogs.tif
102
RTVSPost2010PropOp54
 70
     1
102
RTVSPost2010Prop55
280
     0
102
RTVSPost2010PropOp55
 70
     1
102
RTVSPost2010Prop56
140
1.0
102
RTVSPost2010PropOp56
 70
     1
102
RTVSPost2010Prop57
140
1.0
102
RTVSPost2010PropOp57
 70
     1
  0
XRECORD
  5
563
102
{ACAD_REACTORS
330
562
102
}
330
562
100
AcDbXrecord
280
     1
102
RTVSPost2010Prop28
280
     0
102
RTVSPost2010PropOp28
 70
     1
102
RTVSPost2010Prop29
280
     1
102
RTVSPost2010PropOp29
 70
     1
102
RTVSPost2010Prop30
280
     1
102
RTVSPost2010PropOp30
 70
     1
102
RTVSPost2010Prop31
280
     0
102
RTVSPost2010PropOp31
 70
     1
102
RTVSPost2010Prop32
280
     0
102
RTVSPost2010PropOp32
 70
     1
102
RTVSPost2010Prop33
280
     0
102
RTVSPost2010PropOp33
 70
     1
102
RTVSPost2010Prop34
280
     0
102
RTVSPost2010PropOp34
 70
     1
102
RTVSPost2010Prop35
280
     0
102
RTVSPost2010PropOp35
 70
     1
102
RTVSPost2010Prop36
280
     0
102
RTVSPost2010PropOp36
 70
     1
102
RTVSPost2010Prop37
 90
       50
102
RTVSPost2010PropOp37
 70
     1
102
RTVSPost2010Prop38
140
0.0
102
RTVSPost2010PropOp38
 70
     1
102
RTVSPost2010Prop39
140
1.0
102
RTVSPost2010PropOp39
 70
     1
102
RTVSPost2010Prop40
 90
        0
102
RTVSPost2010PropOp40
 70
     1
102
RTVSPost2010Prop41ColorIndex
 90
       18
102
RTVSPost2010Prop41ColorRGB
 90
-16777216
102
RTVSPost2010PropOp41
 70
     1
102
RTVSPost2010Prop42
 90
       50
102
RTVSPost2010PropOp42
 70
     1
102
RTVSPost2010Prop43
 90
        3
102
RTVSPost2010PropOp43
 70
     1
102
RTVSPost2010Prop44ColorIndex
 90
        5
102
RTVSPost2010Prop44ColorRGB
 90
      255
102
RTVSPost2010PropOp44
 70
     1
102
RTVSPost2010Prop45
280
     0
102
RTVSPost2010PropOp45
 70
     1
102
RTVSPost2010Prop46
 90
       50
102
RTVSPost2010PropOp46
 70
     1
102
RTVSPost2010Prop47
 90
       50
102
RTVSPost2010PropOp47
 70
     1
102
RTVSPost2010Prop48
 90
       50
102
RTVSPost2010PropOp48
 70
     1
102
RTVSPost2010Prop49
280
     0
102
RTVSPost2010PropOp49
 70
     1
102
RTVSPost2010Prop50
 90
       50
102
RTVSPost2010PropOp50
 70
     1
102
RTVSPost2010Prop51ColorIndex
 90
      256
102
RTVSPost2010Prop51ColorRGB
 90
-16777216
102
RTVSPost2010PropOp51
 70
     0
102
RTVSPost2010Prop52
140
1.0
102
RTVSPost2010PropOp52
 70
     0
102
RTVSPost2010Prop53
 90
        2
102
RTVSPost2010PropOp53
 70
     1
102
RTVSPost2010Prop54
  1
strokes_ogs.tif
102
RTVSPost2010PropOp54
 70
     1
102
RTVSPost2010Prop55
280
     0
102
RTVSPost2010PropOp55
 70
     1
102
RTVSPost2010Prop56
140
1.0
102
RTVSPost2010PropOp56
 70
     1
102
RTVSPost2010Prop57
140
1.0
102
RTVSPost2010PropOp57
 70
     1
  0
ENDSEC
  0
EOF
